  0
SECTION
  2
HEADER
  9
$ACADVER
  1
AC1014
  9
$ACADMAINTVER
 70
     9
  9
$DWGCODEPAGE
  3
ANSI_932
  9
$INSBASE
 10
0.0
 20
0.0
 30
0.0
  9
$EXTMIN
 10
-257.7000107842682
 20
-83.31999999999998
 30
0.0
  9
$EXTMAX
 10
257.7000107842682
 20
84.31999999999999
 30
0.0
  9
$LIMMIN
 10
-148.5
 20
-105.0
  9
$LIMMAX
 10
148.5
 20
105.0
  9
$ORTHOMODE
 70
     0
  9
$REGENMODE
 70
     1
  9
$FILLMODE
 70
     1
  9
$QTEXTMODE
 70
     0
  9
$MIRRTEXT
 70
     1
  9
$DRAGMODE
 70
     2
  9
$LTSCALE
 40
1.0
  9
$OSMODE
 70
    37
  9
$ATTMODE
 70
     1
  9
$TEXTSIZE
 40
0.2
  9
$TRACEWID
 40
0.05
  9
$TEXTSTYLE
  7
STANDARD
  9
$CLAYER
  8
0
  9
$CELTYPE
  6
BYLAYER
  9
$CECOLOR
 62
   256
  9
$CELTSCALE
 40
1.0
  9
$DELOBJ
 70
     1
  9
$DISPSILH
 70
     0
  9
$DIMSCALE
 40
1.0
  9
$DIMASZ
 40
2.5
  9
$DIMEXO
 40
0.0625
  9
$DIMDLI
 40
0.38
  9
$DIMRND
 40
0.0
  9
$DIMDLE
 40
0.0
  9
$DIMEXE
 40
0.18
  9
$DIMTP
 40
0.0
  9
$DIMTM
 40
0.0
  9
$DIMTXT
 40
0.18
  9
$DIMCEN
 40
0.09
  9
$DIMTSZ
 40
0.0
  9
$DIMTOL
 70
     0
  9
$DIMLIM
 70
     0
  9
$DIMTIH
 70
     1
  9
$DIMTOH
 70
     1
  9
$DIMSE1
 70
     0
  9
$DIMSE2
 70
     0
  9
$DIMTAD
 70
     3
  9
$DIMZIN
 70
     0
  9
$DIMBLK
  1

  9
$DIMASO
 70
     1
  9
$DIMSHO
 70
     1
  9
$DIMPOST
  1

  9
$DIMAPOST
  1

  9
$DIMALT
 70
     0
  9
$DIMALTD
 70
     2
  9
$DIMALTF
 40
25.4
  9
$DIMLFAC
 40
1.0
  9
$DIMTOFL
 70
     0
  9
$DIMTVP
 40
0.0
  9
$DIMTIX
 70
     0
  9
$DIMSOXD
 70
     0
  9
$DIMSAH
 70
     0
  9
$DIMBLK1
  1

  9
$DIMBLK2
  1

  9
$DIMSTYLE
  2
STANDARD
  9
$DIMCLRD
 70
     0
  9
$DIMCLRE
 70
     0
  9
$DIMCLRT
 70
     0
  9
$DIMTFAC
 40
1.0
  9
$DIMGAP
 40
0.09
  9
$DIMJUST
 70
     0
  9
$DIMSD1
 70
     0
  9
$DIMSD2
 70
     0
  9
$DIMTOLJ
 70
     1
  9
$DIMTZIN
 70
     0
  9
$DIMALTZ
 70
     0
  9
$DIMALTTZ
 70
     0
  9
$DIMFIT
 70
     3
  9
$DIMUPT
 70
     0
  9
$DIMUNIT
 70
     2
  9
$DIMDEC
 70
     4
  9
$DIMTDEC
 70
     4
  9
$DIMALTU
 70
     2
  9
$DIMALTTD
 70
     2
  9
$DIMTXSTY
  7
STANDARD
  9
$DIMAUNIT
 70
     0
  9
$LUNITS
 70
     2
  9
$LUPREC
 70
     4
  9
$SKETCHINC
 40
0.1
  9
$FILLETRAD
 40
0.5
  9
$AUNITS
 70
     0
  9
$AUPREC
 70
     0
  9
$MENU
  1
.
  9
$ELEVATION
 40
0.0
  9
$PELEVATION
 40
0.0
  9
$THICKNESS
 40
0.0
  9
$LIMCHECK
 70
     0
  9
$CHAMFERA
 40
0.5
  9
$CHAMFERB
 40
0.5
  9
$CHAMFERC
 40
1.0
  9
$CHAMFERD
 40
0.0
  9
$SKPOLY
 70
     0
  9
$TDCREATE
 40
2456274.492049178
  9
$TDUPDATE
 40
2456274.49204919
  9
$TDINDWG
 40
0.0000000116
  9
$TDUSRTIMER
 40
0.0000000116
  9
$USRTIMER
 70
     1
  9
$ANGBASE
 50
0.0
  9
$ANGDIR
 70
     0
  9
$PDMODE
 70
     0
  9
$PDSIZE
 40
1.0
  9
$PLINEWID
 40
0.0
  9
$COORDS
 70
     1
  9
$SPLFRAME
 70
     0
  9
$SPLINETYPE
 70
     6
  9
$SPLINESEGS
 70
     8
  9
$ATTDIA
 70
     0
  9
$ATTREQ
 70
     1
  9
$HANDLING
 70
     1
  9
$HANDSEED
  5
187
  9
$SURFTAB1
 70
     6
  9
$SURFTAB2
 70
     6
  9
$SURFTYPE
 70
     6
  9
$SURFU
 70
     6
  9
$SURFV
 70
     6
  9
$UCSNAME
  2

  9
$UCSORG
 10
0.0
 20
0.0
 30
0.0
  9
$UCSXDIR
 10
1.0
 20
0.0
 30
0.0
  9
$UCSYDIR
 10
0.0
 20
1.0
 30
0.0
  9
$PUCSNAME
  2

  9
$PUCSORG
 10
0.0
 20
0.0
 30
0.0
  9
$PUCSXDIR
 10
1.0
 20
0.0
 30
0.0
  9
$PUCSYDIR
 10
0.0
 20
1.0
 30
0.0
  9
$USERI1
 70
     0
  9
$USERI2
 70
     0
  9
$USERI3
 70
     0
  9
$USERI4
 70
     0
  9
$USERI5
 70
     0
  9
$USERR1
 40
0.0
  9
$USERR2
 40
0.0
  9
$USERR3
 40
0.0
  9
$USERR4
 40
0.0
  9
$USERR5
 40
0.0
  9
$WORLDVIEW
 70
     1
  9
$SHADEDGE
 70
     3
  9
$SHADEDIF
 70
    70
  9
$TILEMODE
 70
     1
  9
$MAXACTVP
 70
    64
  9
$PINSBASE
 10
0.0
 20
0.0
 30
0.0
  9
$PLIMCHECK
 70
     0
  9
$PEXTMIN
 10
1.000000000000000E+20
 20
1.000000000000000E+20
 30
1.000000000000000E+20
  9
$PEXTMAX
 10
-1.000000000000000E+20
 20
-1.000000000000000E+20
 30
-1.000000000000000E+20
  9
$PLIMMIN
 10
0.0
 20
0.0
  9
$PLIMMAX
 10
12.0
 20
9.0
  9
$UNITMODE
 70
     0
  9
$VISRETAIN
 70
     0
  9
$PLINEGEN
 70
     1
  9
$PSLTSCALE
 70
     0
  9
$TREEDEPTH
 70
  3020
  9
$PICKSTYLE
 70
     1
  9
$CMLSTYLE
  2
STANDARD
  9
$CMLJUST
 70
     0
  9
$CMLSCALE
 40
1.0
  9
$PROXYGRAPHICS
 70
     0
  9
$MEASUREMENT
 70
     1
  0
ENDSEC
  0
SECTION
  2
CLASSES
  0
CLASS
  1
ACDBDICTIONARYWDFLT
  2
AcDbDictionaryWithDefault
  3
ObjectDBX Classes
 90
        0
280
     0
281
     0
  0
CLASS
  1
XRECORD
  2
AcDbXrecord
  3
AutoCAD 2000
 90
        0
280
     0
281
     0
  0
CLASS
  1
LWPOLYLINE
  2
AcDbPolyline
  3
AutoCAD 2000
 90
        0
280
     0
281
     1
  0
CLASS
  1
HATCH
  2
AcDbHatch
  3
AutoCAD 2000
 90
        0
280
     0
281
     1
  0
CLASS
  1
ACDBPLACEHOLDER
  2
AcDbPlaceHolder
  3
ObjectDBX Classes
 90
        0
280
     0
281
     0
  0
CLASS
  1
LAYOUT
  2
AcDbLayout
  3
ObjectDBX Classes
 90
        0
280
     0
281
     0
  0
ENDSEC
  0
SECTION
  2
TABLES
  0
TABLE
  2
VPORT
  5
8
330
0
100
AcDbSymbolTable
 70
     1
  0
VPORT
  5
29
330
8
100
AcDbSymbolTableRecord
100
AcDbViewportTableRecord
  2
*ACTIVE
 70
     0
 10
0.0
 20
0.0
 11
1.0
 21
1.0
 12
0.0
 22
0.0
 13
0.0
 23
0.0
 14
0.5
 24
0.5
 15
0.5
 25
0.5
 16
0.0
 26
0.0
 36
1.0
 17
-0.0000000000000036
 27
0.5000000000000071
 37
0.0
 40
56.99759999999999
 41
3.074445368459416
 42
50.0
 43
0.0
 44
0.0
 50
0.0
 51
0.0
 71
     0
 72
  1000
 73
     1
 74
     1
 75
     0
 76
     0
 77
     0
 78
     0
  0
ENDTAB
  0
TABLE
  2
LTYPE
  5
5
330
0
100
AcDbSymbolTable
 70
    28
  0
LTYPE
  5
14
330
5
100
AcDbSymbolTableRecord
100
AcDbLinetypeTableRecord
  2
BYBLOCK
 70
     0
  3

 72
    65
 73
     0
 40
0.0
  0
LTYPE
  5
15
330
5
100
AcDbSymbolTableRecord
100
AcDbLinetypeTableRecord
  2
BYLAYER
 70
     0
  3

 72
    65
 73
     0
 40
0.0
  0
LTYPE
  5
16
330
5
100
AcDbSymbolTableRecord
100
AcDbLinetypeTableRecord
  2
CONTINUOUS
 70
     0
  3
Solid line
 72
    65
 73
     0
 40
0.0
  0
LTYPE
  5
2B
330
5
100
AcDbSymbolTableRecord
100
AcDbLinetypeTableRecord
  2
HIDDENX2
 70
     0
  3
CADPAC LINETYPE
 72
    65
 73
     2
 40
4.320987654320959
 49
3.240740740740719
 74
     0
 49
-1.08024691358024
 74
     0
  0
LTYPE
  5
2C
330
5
100
AcDbSymbolTableRecord
100
AcDbLinetypeTableRecord
  2
HIDDEN
 70
     0
  3
CADPAC LINETYPE
 72
    65
 73
     2
 40
3.240740740740719
 49
2.160493827160479
 74
     0
 49
-1.08024691358024
 74
     0
  0
LTYPE
  5
2D
330
5
100
AcDbSymbolTableRecord
100
AcDbLinetypeTableRecord
  2
HIDDEN2
 70
     0
  3
CADPAC LINETYPE
 72
    65
 73
     2
 40
2.700617283950599
 49
1.62037037037036
 74
     0
 49
-1.08024691358024
 74
     0
  0
LTYPE
  5
2E
330
5
100
AcDbSymbolTableRecord
100
AcDbLinetypeTableRecord
  2
DASHED
 70
     0
  3
CADPAC LINETYPE
 72
    65
 73
     2
 40
3.024691358024683
 49
2.160493827160479
 74
     0
 49
-0.8641975308642032
 74
     0
  0
LTYPE
  5
2F
330
5
100
AcDbSymbolTableRecord
100
AcDbLinetypeTableRecord
  2
DASHED2
 70
     0
  3
CADPAC LINETYPE
 72
    65
 73
     2
 40
1.944444444444457
 49
1.296296296296305
 74
     0
 49
-0.6481481481481524
 74
     0
  0
LTYPE
  5
30
330
5
100
AcDbSymbolTableRecord
100
AcDbLinetypeTableRecord
  2
DASHEDX2
 70
     0
  3
CADPAC LINETYPE
 72
    65
 73
     2
 40
5.185185185185219
 49
4.320987654321016
 74
     0
 49
-0.8641975308642032
 74
     0
  0
LTYPE
  5
31
330
5
100
AcDbSymbolTableRecord
100
AcDbLinetypeTableRecord
  2
DOTX2
 70
     0
  3
CADPAC LINETYPE
 72
    65
 73
     2
 40
1.890432098765444
 49
0.0
 74
     0
 49
-1.890432098765444
 74
     0
  0
LTYPE
  5
32
330
5
100
AcDbSymbolTableRecord
100
AcDbLinetypeTableRecord
  2
DOT
 70
     0
  3
CADPAC LINETYPE
 72
    65
 73
     2
 40
1.512345679012356
 49
0.0
 74
     0
 49
-1.512345679012356
 74
     0
  0
LTYPE
  5
33
330
5
100
AcDbSymbolTableRecord
100
AcDbLinetypeTableRecord
  2
DOT2
 70
     0
  3
CADPAC LINETYPE
 72
    65
 73
     2
 40
1.134259259259267
 49
0.0
 74
     0
 49
-1.134259259259267
 74
     0
  0
LTYPE
  5
34
330
5
100
AcDbSymbolTableRecord
100
AcDbLinetypeTableRecord
  2
CENTERX2
 70
     0
  3
CADPAC LINETYPE
 72
    65
 73
     4
 40
6.481481481481438
 49
2.700617283950599
 74
     0
 49
-1.3503086419753
 74
     0
 49
1.08024691358024
 74
     0
 49
-1.3503086419753
 74
     0
  0
LTYPE
  5
35
330
5
100
AcDbSymbolTableRecord
100
AcDbLinetypeTableRecord
  2
CENTER
 70
     0
  3
CADPAC LINETYPE
 72
    65
 73
     4
 40
4.969135802469102
 49
2.160493827160479
 74
     0
 49
-1.08024691358024
 74
     0
 49
0.6481481481481438
 74
     0
 49
-1.08024691358024
 74
     0
  0
LTYPE
  5
36
330
5
100
AcDbSymbolTableRecord
100
AcDbLinetypeTableRecord
  2
CENTER2
 70
     0
  3
CADPAC LINETYPE
 72
    65
 73
     4
 40
3.456790123456767
 49
1.62037037037036
 74
     0
 49
-0.8101851851851798
 74
     0
 49
0.216049382716048
 74
     0
 49
-0.8101851851851798
 74
     0
  0
LTYPE
  5
37
330
5
100
AcDbSymbolTableRecord
100
AcDbLinetypeTableRecord
  2
DASHDOTX2
 70
     0
  3
CADPAC LINETYPE
 72
    65
 73
     4
 40
10.37037037037032
 49
5.18518518518519
 74
     0
 49
-1.728395061728378
 74
     0
 49
1.728395061728378
 74
     0
 49
-1.728395061728378
 74
     0
  0
LTYPE
  5
38
330
5
100
AcDbSymbolTableRecord
100
AcDbLinetypeTableRecord
  2
DASHDOT
 70
     0
  3
CADPAC LINETYPE
 72
    65
 73
     4
 40
5.185185185185219
 49
2.592592592592609
 74
     0
 49
-0.8641975308642032
 74
     0
 49
0.8641975308642032
 74
     0
 49
-0.8641975308642032
 74
     0
  0
LTYPE
  5
39
330
5
100
AcDbSymbolTableRecord
100
AcDbLinetypeTableRecord
  2
DASHDOT2
 70
     0
  3
CADPAC LINETYPE
 72
    65
 73
     4
 40
3.327160493827182
 49
1.944444444444457
 74
     0
 49
-0.6481481481481524
 74
     0
 49
0.0864197530864203
 74
     0
 49
-0.6481481481481524
 74
     0
  0
LTYPE
  5
3A
330
5
100
AcDbSymbolTableRecord
100
AcDbLinetypeTableRecord
  2
DIVIDEX2
 70
     0
  3
CADPAC LINETYPE
 72
    65
 73
     6
 40
13.82716049382708
 49
5.18518518518519
 74
     0
 49
-1.728395061728378
 74
     0
 49
1.728395061728378
 74
     0
 49
-1.728395061728378
 74
     0
 49
1.728395061728378
 74
     0
 49
-1.728395061728378
 74
     0
  0
LTYPE
  5
3B
330
5
100
AcDbSymbolTableRecord
100
AcDbLinetypeTableRecord
  2
DIVIDE
 70
     0
  3
CADPAC LINETYPE
 72
    65
 73
     6
 40
6.913580246913625
 49
2.592592592592609
 74
     0
 49
-0.8641975308642032
 74
     0
 49
0.8641975308642032
 74
     0
 49
-0.8641975308642032
 74
     0
 49
0.8641975308642032
 74
     0
 49
-0.8641975308642032
 74
     0
  0
LTYPE
  5
3C
330
5
100
AcDbSymbolTableRecord
100
AcDbLinetypeTableRecord
  2
DIVIDE2
 70
     0
  3
CADPAC LINETYPE
 72
    65
 73
     6
 40
5.185185185185219
 49
1.944444444444457
 74
     0
 49
-0.6481481481481524
 74
     0
 49
0.6481481481481524
 74
     0
 49
-0.6481481481481524
 74
     0
 49
0.6481481481481524
 74
     0
 49
-0.6481481481481524
 74
     0
  0
LTYPE
  5
3D
330
5
100
AcDbSymbolTableRecord
100
AcDbLinetypeTableRecord
  2
BORDERX2
 70
     0
  3
CADPAC LINETYPE
 72
    65
 73
     6
 40
9.452160493827098
 49
2.700617283950599
 74
     0
 49
-1.3503086419753
 74
     0
 49
2.700617283950599
 74
     0
 49
-1.3503086419753
 74
     0
 49
0.0
 74
     0
 49
-1.3503086419753
 74
     0
  0
LTYPE
  5
3E
330
5
100
AcDbSymbolTableRecord
100
AcDbLinetypeTableRecord
  2
BORDER
 70
     0
  3
CADPAC LINETYPE
 72
    65
 73
     6
 40
7.561728395061678
 49
2.160493827160479
 74
     0
 49
-1.08024691358024
 74
     0
 49
2.160493827160479
 74
     0
 49
-1.08024691358024
 74
     0
 49
0.0
 74
     0
 49
-1.08024691358024
 74
     0
  0
LTYPE
  5
3F
330
5
100
AcDbSymbolTableRecord
100
AcDbLinetypeTableRecord
  2
BORDER2
 70
     0
  3
CADPAC LINETYPE
 72
    65
 73
     6
 40
5.617283950617221
 49
1.728395061728378
 74
     0
 49
-1.080246913580226
 74
     0
 49
0.6481481481481524
 74
     0
 49
-1.080246913580226
 74
     0
 49
0.0
 74
     0
 49
-1.08024691358024
 74
     0
  0
LTYPE
  5
40
330
5
100
AcDbSymbolTableRecord
100
AcDbLinetypeTableRecord
  2
PHANTOMX2
 70
     0
  3
CADPAC LINETYPE
 72
    65
 73
     6
 40
8.101851851851798
 49
2.700617283950599
 74
     0
 49
-1.08024691358024
 74
     0
 49
1.08024691358024
 74
     0
 49
-1.08024691358024
 74
     0
 49
1.08024691358024
 74
     0
 49
-1.08024691358024
 74
     0
  0
LTYPE
  5
41
330
5
100
AcDbSymbolTableRecord
100
AcDbLinetypeTableRecord
  2
PHANTOM
 70
     0
  3
CADPAC LINETYPE
 72
    65
 73
     6
 40
6.697530864197486
 49
2.160493827160479
 74
     0
 49
-1.08024691358024
 74
     0
 49
0.6481481481481438
 74
     0
 49
-1.08024691358024
 74
     0
 49
0.6481481481481438
 74
     0
 49
-1.08024691358024
 74
     0
  0
LTYPE
  5
42
330
5
100
AcDbSymbolTableRecord
100
AcDbLinetypeTableRecord
  2
PHANTOM2
 70
     0
  3
CADPAC LINETYPE
 72
    65
 73
     6
 40
5.725308641975271
 49
1.62037037037036
 74
     0
 49
-1.08024691358024
 74
     0
 49
0.4320987654320959
 74
     0
 49
-1.08024691358024
 74
     0
 49
0.4320987654320959
 74
     0
 49
-1.08024691358024
 74
     0
  0
LTYPE
  5
43
330
5
100
AcDbSymbolTableRecord
100
AcDbLinetypeTableRecord
  2
ACAD_ISO06W100
 70
     0
  3
CADPAC LINETYPE
 72
    65
 73
     8
 40
11.45061728395055
 49
5.18518518518519
 74
     0
 49
-1.080246913580226
 74
     0
 49
0.6481481481481524
 74
     0
 49
-1.080246913580226
 74
     0
 49
0.6481481481481524
 74
     0
 49
-1.080246913580226
 74
     0
 49
0.6481481481481524
 74
     0
 49
-1.080246913580226
 74
     0
  0
LTYPE
  5
44
330
5
100
AcDbSymbolTableRecord
100
AcDbLinetypeTableRecord
  2
ACAD_ISO13W100
 70
     0
  3
CADPAC LINETYPE
 72
    65
 73
     8
 40
8.641975308641918
 49
2.160493827160479
 74
     0
 49
-1.08024691358024
 74
     0
 49
2.160493827160479
 74
     0
 49
-1.08024691358024
 74
     0
 49
0.0
 74
     0
 49
-1.08024691358024
 74
     0
 49
0.0
 74
     0
 49
-1.08024691358024
 74
     0
  0
LTYPE
  5
45
330
5
100
AcDbSymbolTableRecord
100
AcDbLinetypeTableRecord
  2
ACAD_ISO14W100
 70
     0
  3
CADPAC LINETYPE
 72
    65
 73
     8
 40
6.481481481481438
 49
2.160493827160479
 74
     0
 49
-1.08024691358024
 74
     0
 49
0.0
 74
     0
 49
-1.08024691358024
 74
     0
 49
0.0
 74
     0
 49
-1.08024691358024
 74
     0
 49
0.0
 74
     0
 49
-1.08024691358024
 74
     0
  0
ENDTAB
  0
TABLE
  2
LAYER
  5
2
330
0
100
AcDbSymbolTable
 70
     9
  0
LAYER
  5
10
330
2
100
AcDbSymbolTableRecord
100
AcDbLayerTableRecord
  2
0
 70
     0
 62
     7
  6
CONTINUOUS
  0
LAYER
  5
46
330
2
100
AcDbSymbolTableRecord
100
AcDbLayerTableRecord
  2
LAYER0003
 70
     0
 62
     7
  6
CONTINUOUS
  0
LAYER
  5
47
330
2
100
AcDbSymbolTableRecord
100
AcDbLayerTableRecord
  2
LAYER0005
 70
     0
 62
     7
  6
CONTINUOUS
  0
LAYER
  5
48
330
2
100
AcDbSymbolTableRecord
100
AcDbLayerTableRecord
  2
LAYER0007
 70
     0
 62
     7
  6
CONTINUOUS
  0
LAYER
  5
49
330
2
100
AcDbSymbolTableRecord
100
AcDbLayerTableRecord
  2
LAYER0008
 70
     0
 62
     7
  6
CONTINUOUS
  0
LAYER
  5
4A
330
2
100
AcDbSymbolTableRecord
100
AcDbLayerTableRecord
  2
LAYER0009
 70
     0
 62
     7
  6
CONTINUOUS
  0
LAYER
  5
4B
330
2
100
AcDbSymbolTableRecord
100
AcDbLayerTableRecord
  2
LAYER0010
 70
     0
 62
     7
  6
CONTINUOUS
  0
LAYER
  5
4C
330
2
100
AcDbSymbolTableRecord
100
AcDbLayerTableRecord
  2
LAYER0012
 70
     0
 62
     7
  6
CONTINUOUS
  0
LAYER
  5
4D
330
2
100
AcDbSymbolTableRecord
100
AcDbLayerTableRecord
  2
LAYER0013
 70
     0
 62
     7
  6
CONTINUOUS
  0
ENDTAB
  0
TABLE
  2
STYLE
  5
3
330
0
100
AcDbSymbolTable
 70
     2
  0
STYLE
  5
11
330
3
100
AcDbSymbolTableRecord
100
AcDbTextStyleTableRecord
  2
STANDARD
 70
     0
 40
0.0
 41
1.0
 50
0.0
 71
     0
 42
0.2
  3
txt
  4

  0
STYLE
  5
65
330
3
100
AcDbSymbolTableRecord
100
AcDbTextStyleTableRecord
  2
FDASTYLE0
 70
     0
 40
4.0
 41
0.8000000000000002
 50
0.0
 71
     0
 42
0.2
  3
txt.shx
  4
bigfont
  0
ENDTAB
  0
TABLE
  2
VIEW
  5
6
330
0
100
AcDbSymbolTable
 70
     0
  0
ENDTAB
  0
TABLE
  2
UCS
  5
7
330
0
100
AcDbSymbolTable
 70
     0
  0
ENDTAB
  0
TABLE
  2
APPID
  5
9
330
0
100
AcDbSymbolTable
 70
     2
  0
APPID
  5
12
330
9
100
AcDbSymbolTableRecord
100
AcDbRegAppTableRecord
  2
ACAD
 70
     0
  0
APPID
  5
2A
330
9
100
AcDbSymbolTableRecord
100
AcDbRegAppTableRecord
  2
DAFUSIONOUT
 70
     0
  0
ENDTAB
  0
TABLE
  2
DIMSTYLE
  5
A
330
0
100
AcDbSymbolTable
 70
     1
  0
DIMSTYLE
105
27
330
A
100
AcDbSymbolTableRecord
100
AcDbDimStyleTableRecord
  2
STANDARD
 70
     0
  3

  4

  5

  6

  7

 40
1.0
 41
0.18
 42
0.0625
 43
0.38
 44
0.18
 45
0.0
 46
0.0
 47
0.0
 48
0.0
140
0.18
141
0.09
142
0.0
143
25.4
144
1.0
145
0.0
146
1.0
147
0.09
 71
     0
 72
     0
 73
     1
 74
     1
 75
     0
 76
     0
 77
     0
 78
     0
170
     0
171
     2
172
     0
173
     0
174
     0
175
     0
176
     0
177
     0
178
     0
270
     2
271
     4
272
     4
273
     2
274
     2
340
11
275
     0
280
     0
281
     0
282
     0
283
     1
284
     0
285
     0
286
     0
287
     3
288
     0
  0
ENDTAB
  0
TABLE
  2
BLOCK_RECORD
  5
1
330
0
100
AcDbSymbolTable
 70
     5
  0
BLOCK_RECORD
  5
1F
330
1
100
AcDbSymbolTableRecord
100
AcDbBlockTableRecord
  2
*MODEL_SPACE
  0
BLOCK_RECORD
  5
1B
330
1
100
AcDbSymbolTableRecord
100
AcDbBlockTableRecord
  2
*PAPER_SPACE
  0
BLOCK_RECORD
  5
4F
330
1
100
AcDbSymbolTableRecord
100
AcDbBlockTableRecord
  2
DA_IMAGEDIMGROUP_1
  0
BLOCK_RECORD
  5
52
330
1
100
AcDbSymbolTableRecord
100
AcDbBlockTableRecord
  2
DC_GROUP_1
  0
BLOCK_RECORD
  5
55
330
1
100
AcDbSymbolTableRecord
100
AcDbBlockTableRecord
  2
DA_IMAGEDIMGROUP_2
  0
BLOCK_RECORD
  5
5C
330
1
100
AcDbSymbolTableRecord
100
AcDbBlockTableRecord
  2
_OPEN30
  0
ENDTAB
  0
ENDSEC
  0
SECTION
  2
BLOCKS
  0
BLOCK
  5
20
330
1F
100
AcDbEntity
  8
0
100
AcDbBlockBegin
  2
*MODEL_SPACE
 70
     0
 71
     0
 10
0.0
 20
0.0
 30
0.0
  3
*MODEL_SPACE
  1

  0
ENDBLK
  5
21
330
1F
100
AcDbEntity
  8
0
100
AcDbBlockEnd
  0
BLOCK
  5
1C
330
1B
100
AcDbEntity
 67
     1
  8
0
100
AcDbBlockBegin
  2
*PAPER_SPACE
 70
     0
 71
     0
 10
0.0
 20
0.0
 30
0.0
  3
*PAPER_SPACE
  1

  0
ENDBLK
  5
1D
330
1B
100
AcDbEntity
 67
     1
  8
0
100
AcDbBlockEnd
  0
BLOCK
  5
50
330
4F
100
AcDbEntity
  8
0
100
AcDbBlockBegin
  2
DA_IMAGEDIMGROUP_1
 70
     0
 71
     0
 10
0.0
 20
0.0
 30
0.0
  3
DA_IMAGEDIMGROUP_1
  1

  0
LINE
  5
58
330
4F
100
AcDbEntity
  8
0
  6
CONTINUOUS
 62
     9
100
AcDbLine
 10
0.3999964052599339
 20
-15.24000066854565
 30
0.0
 11
0.3999964052599339
 21
-23.44
 31
0.0
  0
LINE
  5
59
330
4F
100
AcDbEntity
  8
0
  6
CONTINUOUS
 62
     9
100
AcDbLine
 10
-2.000002641065734
 20
-6.839999999999982
 30
0.0
 11
-2.000002641065734
 21
-23.44
 31
0.0
  0
LINE
  5
5A
330
4F
100
AcDbEntity
  8
0
  6
CONTINUOUS
 62
     9
100
AcDbLine
 10
-2.000002641065734
 20
-22.44
 30
0.0
 11
0.3999964052599339
 21
-22.44
 31
0.0
  0
LINE
  5
5B
330
4F
100
AcDbEntity
  8
0
  6
CONTINUOUS
 62
     9
100
AcDbLine
 10
14.89777640525994
 20
-22.44
 30
0.0
 11
0.3999964052599339
 21
-22.44
 31
0.0
  0
INSERT
  5
62
330
4F
100
AcDbEntity
  8
0
 62
     9
100
AcDbBlockReference
  2
_OPEN30
 10
0.3999964052599339
 20
-22.44
 30
0.0
 41
3.000002787824364
 42
2.999989273978464
 50
180.0
  0
LINE
  5
63
330
4F
100
AcDbEntity
  8
0
  6
CONTINUOUS
 62
     9
100
AcDbLine
 10
-7.000002641065734
 20
-22.44
 30
0.0
 11
-2.000002641065734
 21
-22.44
 31
0.0
  0
INSERT
  5
64
330
4F
100
AcDbEntity
  8
0
 62
     9
100
AcDbBlockReference
  2
_OPEN30
 10
-2.000002641065734
 20
-22.44
 30
0.0
 41
3.000002787824364
 42
2.999989273978464
 50
360.0
  0
TEXT
  5
66
330
4F
100
AcDbEntity
  8
0
 62
     7
100
AcDbText
 10
4.297776405259935
 20
-21.44
 30
0.0
 40
4.0
  1
2.4
 41
0.8000000000000002
  7
FDASTYLE0
 72
     5
 11
13.89777640525994
 21
-21.44
 31
0.0
100
AcDbText
  0
ENDBLK
  5
51
330
4F
100
AcDbEntity
  8
0
100
AcDbBlockEnd
  0
BLOCK
  5
53
330
52
100
AcDbEntity
  8
0
100
AcDbBlockBegin
  2
DC_GROUP_1
 70
     0
 71
     0
 10
0.0
 20
0.0
 30
0.0
  3
DC_GROUP_1
  1

  0
LINE
  5
67
330
52
100
AcDbEntity
  8
0
  6
CONTINUOUS
 62
     9
100
AcDbLine
 10
69.37139676309231
 20
-8.572728924988647
 30
0.0
 11
62.90000359475577
 21
-22.43999999999999
 31
0.0
  0
INSERT
  5
68
330
52
100
AcDbEntity
  8
0
 62
     9
100
AcDbBlockReference
  2
_OPEN30
 10
69.37139676309231
 20
-8.572728924988647
 30
0.0
 41
3.000002787824364
 42
2.999989273978464
 50
64.98310652190708
  0
LINE
  5
69
330
52
100
AcDbEntity
  8
0
  6
CONTINUOUS
 62
     9
100
AcDbLine
 10
62.90000359475577
 20
-22.43999999999999
 30
0.0
 11
40.50000359475577
 21
-22.43999999999999
 31
0.0
  0
TEXT
  5
6A
330
52
100
AcDbEntity
  8
0
 62
     7
100
AcDbText
 10
40.50000359475577
 20
-21.43999999999999
 30
0.0
 40
4.0
  1
（+）ＭＡＲＫ
 41
0.682926829268293
  7
FDASTYLE0
 72
     5
 11
62.90000359475577
 21
-21.43999999999999
 31
0.0
100
AcDbText
  0
ENDBLK
  5
54
330
52
100
AcDbEntity
  8
0
100
AcDbBlockEnd
  0
BLOCK
  5
56
330
55
100
AcDbEntity
  8
0
100
AcDbBlockBegin
  2
DA_IMAGEDIMGROUP_2
 70
     0
 71
     0
 10
0.0
 20
0.0
 30
0.0
  3
DA_IMAGEDIMGROUP_2
  1

  0
LINE
  5
6B
330
55
100
AcDbEntity
  8
0
  6
CONTINUOUS
 62
     9
100
AcDbLine
 10
37.19998997870344
 20
3.252853089020956
 30
0.0
 11
37.19998997870344
 21
15.56
 31
0.0
  0
LINE
  5
6C
330
55
100
AcDbEntity
  8
0
  6
CONTINUOUS
 62
     9
100
AcDbLine
 10
35.99998997870337
 20
4.304202590308943
 30
0.0
 11
35.99998997870337
 21
15.56
 31
0.0
  0
LINE
  5
6D
330
55
100
AcDbEntity
  8
0
  6
CONTINUOUS
 62
     9
100
AcDbLine
 10
35.99998997870337
 20
14.56
 30
0.0
 11
37.19998997870344
 21
14.56
 31
0.0
  0
LINE
  5
6E
330
55
100
AcDbEntity
  8
0
  6
CONTINUOUS
 62
     9
100
AcDbLine
 10
21.50220997870337
 20
14.56
 30
0.0
 11
35.99998997870337
 21
14.56
 31
0.0
  0
INSERT
  5
6F
330
55
100
AcDbEntity
  8
0
 62
     9
100
AcDbBlockReference
  2
_OPEN30
 10
35.99998997870337
 20
14.56
 30
0.0
 41
3.000002787824364
 42
2.999989273978464
 50
360.0
  0
LINE
  5
70
330
55
100
AcDbEntity
  8
0
  6
CONTINUOUS
 62
     9
100
AcDbLine
 10
42.19998997870344
 20
14.56
 30
0.0
 11
37.19998997870344
 21
14.56
 31
0.0
  0
INSERT
  5
71
330
55
100
AcDbEntity
  8
0
 62
     9
100
AcDbBlockReference
  2
_OPEN30
 10
37.19998997870344
 20
14.56
 30
0.0
 41
3.000002787824364
 42
2.999989273978464
 50
180.0
  0
TEXT
  5
72
330
55
100
AcDbEntity
  8
0
 62
     7
100
AcDbText
 10
22.50220997870337
 20
15.56
 30
0.0
 40
4.0
  1
1.2
 41
0.8000000000000002
  7
FDASTYLE0
 72
     5
 11
32.10220997870337
 21
15.56
 31
0.0
100
AcDbText
  0
ENDBLK
  5
57
330
55
100
AcDbEntity
  8
0
100
AcDbBlockEnd
  0
BLOCK
  5
5D
330
5C
100
AcDbEntity
  8
0
100
AcDbBlockBegin
  2
_OPEN30
 70
     0
 71
     0
 10
0.0
 20
0.0
 30
0.0
  3
_OPEN30
  1

  0
LINE
  5
5F
330
5C
100
AcDbEntity
  8
0
  6
BYBLOCK
 62
     0
100
AcDbLine
 10
-1.0
 20
0.267949
 30
0.0
 11
0.0
 21
0.0
 31
0.0
  0
LINE
  5
60
330
5C
100
AcDbEntity
  8
0
  6
BYBLOCK
 62
     0
100
AcDbLine
 10
0.0
 20
0.0
 30
0.0
 11
-1.0
 21
-0.267949
 31
0.0
  0
LINE
  5
61
330
5C
100
AcDbEntity
  8
0
  6
BYBLOCK
 62
     0
100
AcDbLine
 10
0.0
 20
0.0
 30
0.0
 11
-1.0
 21
0.0
 31
0.0
  0
ENDBLK
  5
5E
330
5C
100
AcDbEntity
  8
0
100
AcDbBlockEnd
  0
ENDSEC
  0
SECTION
  2
ENTITIES
  0
LINE
  5
73
330
1F
100
AcDbEntity
  8
0
  6
CONTINUOUS
 62
     3
100
AcDbLine
 10
0.5999964052599296
 20
6.559999999999999
 30
0.0
 11
0.3999964052599268
 21
6.359999999999996
 31
0.0
  0
LINE
  5
74
330
1F
100
AcDbEntity
  8
0
  6
CONTINUOUS
 62
     3
100
AcDbLine
 10
0.5999964052599296
 20
6.559999999999999
 30
0.0
 11
34.20000264108133
 21
6.559999999999996
 31
0.0
  0
LINE
  5
75
330
1F
100
AcDbEntity
  8
0
  6
CONTINUOUS
 62
     3
100
AcDbLine
 10
0.5999964052599367
 20
-14.44
 30
0.0
 11
0.3999964052599339
 21
-14.24
 31
0.0
  0
LINE
  5
76
330
1F
100
AcDbEntity
  8
0
  6
CONTINUOUS
 62
     3
100
AcDbLine
 10
0.3999964052599268
 20
6.359999999999996
 30
0.0
 11
0.3999964052599339
 21
-14.24000066854565
 31
0.0
  0
LINE
  5
77
330
1F
100
AcDbEntity
  8
0
  6
CONTINUOUS
 62
     3
100
AcDbLine
 10
0.5999964052599367
 20
-14.44
 30
0.0
 11
34.19999640525972
 21
-14.44
 31
0.0
  0
CIRCLE
  5
78
330
1F
100
AcDbEntity
  8
0
  6
CONTINUOUS
 62
     3
100
AcDbCircle
 10
-73.40000359474007
 20
-3.94
 30
0.0
 40
1.0
  0
CIRCLE
  5
79
330
1F
100
AcDbEntity
  8
0
  6
CONTINUOUS
 62
     3
100
AcDbCircle
 10
-73.40000359474007
 20
-3.94
 30
0.0
 40
2.0
  0
CIRCLE
  5
7A
330
1F
100
AcDbEntity
  8
0
  6
CONTINUOUS
 62
     3
100
AcDbCircle
 10
-73.40000359474007
 20
-3.94
 30
0.0
 40
3.5
  0
CIRCLE
  5
7B
330
1F
100
AcDbEntity
  8
0
  6
CONTINUOUS
 62
     3
100
AcDbCircle
 10
73.40000359475577
 20
-3.939999999999985
 30
0.0
 40
10.5
  0
LINE
  5
7C
330
1F
100
AcDbEntity
  8
0
  6
CONTINUOUS
 62
     3
100
AcDbLine
 10
72.15000359475607
 20
3.302927584892739
 30
0.0
 11
72.15000359475607
 21
2.410000000077798
 31
0.0
  0
LINE
  5
7D
330
1F
100
AcDbEntity
  8
0
  6
CONTINUOUS
 62
     3
100
AcDbLine
 10
73.40000359475607
 20
2.410000000077798
 30
0.0
 11
72.15000359475607
 21
2.410000000077798
 31
0.0
  0
ARC
  5
7E
330
1F
100
AcDbEntity
  8
0
  6
CONTINUOUS
 62
     3
100
AcDbCircle
 10
73.40000359475607
 20
-3.939999999999985
 30
0.0
 40
7.35
100
AcDbArc
 50
99.79177432463465
 51
260.2082256753654
  0
ARC
  5
7F
330
1F
100
AcDbEntity
  8
0
  6
CONTINUOUS
 62
     3
100
AcDbCircle
 10
72.10000359475608
 20
2.210000000082868
 30
0.0
 40
0.5
100
AcDbArc
 50
180.0
 51
270.0
  0
LINE
  5
80
330
1F
100
AcDbEntity
  8
0
  6
CONTINUOUS
 62
     3
100
AcDbLine
 10
72.10000359475608
 20
1.710000000082868
 30
0.0
 11
74.70000359475607
 21
1.710000000082868
 31
0.0
  0
LINE
  5
81
330
1F
100
AcDbEntity
  8
0
  6
CONTINUOUS
 62
     3
100
AcDbLine
 10
74.65000359476184
 20
3.302927584891744
 30
0.0
 11
74.65000359476184
 21
2.410000000077798
 31
0.0
  0
LINE
  5
82
330
1F
100
AcDbEntity
  8
0
  6
CONTINUOUS
 62
     3
100
AcDbLine
 10
73.40000359475607
 20
2.410000000077798
 30
0.0
 11
74.65000359476184
 21
2.410000000077798
 31
0.0
  0
ARC
  5
83
330
1F
100
AcDbEntity
  8
0
  6
CONTINUOUS
 62
     3
100
AcDbCircle
 10
73.40000359475607
 20
-3.939999999999985
 30
0.0
 40
7.35
100
AcDbArc
 50
279.7917743246803
 51
440.2082256753197
  0
ARC
  5
84
330
1F
100
AcDbEntity
  8
0
  6
CONTINUOUS
 62
     3
100
AcDbCircle
 10
74.70000359475607
 20
2.210000000082868
 30
0.0
 40
0.5
100
AcDbArc
 50
270.0
 51
360.0
  0
LINE
  5
85
330
1F
100
AcDbEntity
  8
0
  6
CONTINUOUS
 62
     3
100
AcDbLine
 10
74.65000359476184
 20
-11.18292758489172
 30
0.0
 11
74.65000359476184
 21
-10.29000000006752
 31
0.0
  0
LINE
  5
86
330
1F
100
AcDbEntity
  8
0
  6
CONTINUOUS
 62
     3
100
AcDbLine
 10
73.40000359476184
 20
-10.29000000006752
 30
0.0
 11
74.65000359476184
 21
-10.29000000006752
 31
0.0
  0
ARC
  5
87
330
1F
100
AcDbEntity
  8
0
  6
CONTINUOUS
 62
     3
100
AcDbCircle
 10
74.70000359475607
 20
-10.09000000006435
 30
0.0
 40
0.5
100
AcDbArc
 50
0.0
 51
90.0
  0
LINE
  5
88
330
1F
100
AcDbEntity
  8
0
  6
CONTINUOUS
 62
     3
100
AcDbLine
 10
72.10000359475608
 20
-9.590000000064352
 30
0.0
 11
74.70000359475607
 21
-9.590000000064352
 31
0.0
  0
LINE
  5
89
330
1F
100
AcDbEntity
  8
0
  6
CONTINUOUS
 62
     3
100
AcDbLine
 10
72.15000359475607
 20
-11.18292758489271
 30
0.0
 11
72.15000359475607
 21
-10.29000000006752
 31
0.0
  0
LINE
  5
8A
330
1F
100
AcDbEntity
  8
0
  6
CONTINUOUS
 62
     3
100
AcDbLine
 10
73.40000359476184
 20
-10.29000000006752
 30
0.0
 11
72.15000359475607
 21
-10.29000000006752
 31
0.0
  0
ARC
  5
8B
330
1F
100
AcDbEntity
  8
0
  6
CONTINUOUS
 62
     3
100
AcDbCircle
 10
72.10000359475608
 20
-10.09000000006435
 30
0.0
 40
0.5
100
AcDbArc
 50
90.0
 51
180.0
  0
LINE
  5
8C
330
1F
100
AcDbEntity
  8
0
  6
CONTINUOUS
 62
     3
100
AcDbLine
 10
71.12474846614765
 20
-7.6899999999945
 30
0.0
 11
70.15000359475607
 21
-7.6899999999945
 31
0.0
  0
CIRCLE
  5
8D
330
1F
100
AcDbEntity
  8
0
  6
CONTINUOUS
 62
     3
100
AcDbCircle
 10
69.90000359475607
 20
-7.4399999999945
 30
0.0
 40
1.25
  0
LINE
  5
8E
330
1F
100
AcDbEntity
  8
0
  6
CONTINUOUS
 62
     3
100
AcDbLine
 10
69.65000359475607
 20
-7.6899999999945
 30
0.0
 11
68.67525872336448
 21
-7.6899999999945
 31
0.0
  0
LINE
  5
8F
330
1F
100
AcDbEntity
  8
0
  6
CONTINUOUS
 62
     3
100
AcDbLine
 10
69.65000359475607
 20
-8.664744871386079
 30
0.0
 11
69.65000359475607
 21
-7.6899999999945
 31
0.0
  0
LINE
  5
90
330
1F
100
AcDbEntity
  8
0
  6
CONTINUOUS
 62
     3
100
AcDbLine
 10
69.65000359475607
 20
-7.1899999999945
 30
0.0
 11
69.65000359475607
 21
-6.215255128602907
 31
0.0
  0
LINE
  5
91
330
1F
100
AcDbEntity
  8
0
  6
CONTINUOUS
 62
     3
100
AcDbLine
 10
70.15000359475607
 20
-6.215255128602907
 30
0.0
 11
70.15000359475607
 21
-7.1899999999945
 31
0.0
  0
LINE
  5
92
330
1F
100
AcDbEntity
  8
0
  6
CONTINUOUS
 62
     3
100
AcDbLine
 10
70.15000359475607
 20
-7.6899999999945
 30
0.0
 11
70.15000359475607
 21
-8.664744871386079
 31
0.0
  0
LINE
  5
93
330
1F
100
AcDbEntity
  8
0
  6
CONTINUOUS
 62
     3
100
AcDbLine
 10
68.67525872336448
 20
-7.1899999999945
 30
0.0
 11
69.65000359475607
 21
-7.1899999999945
 31
0.0
  0
LINE
  5
94
330
1F
100
AcDbEntity
  8
0
  6
CONTINUOUS
 62
     3
100
AcDbLine
 10
70.15000359475607
 20
-7.1899999999945
 30
0.0
 11
71.12474846614765
 21
-7.1899999999945
 31
0.0
  0
ARC
  5
95
330
1F
100
AcDbEntity
  8
0
  6
CONTINUOUS
 62
     3
100
AcDbCircle
 10
66.6952281941834
 20
1.405709665509388
 30
0.0
 40
0.2
100
AcDbArc
 50
39.9999999999989
 51
141.4346850278032
  0
ARC
  5
96
330
1F
100
AcDbEntity
  8
0
  6
CONTINUOUS
 62
     3
100
AcDbCircle
 10
73.40000359475607
 20
-3.939999999999985
 30
0.0
 40
8.199999999999999
100
AcDbArc
 50
119.4597140347349
 51
140.5402859651537
  0
LINE
  5
97
330
1F
100
AcDbEntity
  8
0
  6
CONTINUOUS
 62
     3
100
AcDbLine
 10
67.33361171597854
 20
0.9560585753353728
 30
0.0
 11
66.84843708281042
 21
1.534267187449085
 31
0.0
  0
ARC
  5
98
330
1F
100
AcDbEntity
  8
0
  6
CONTINUOUS
 62
     3
100
AcDbCircle
 10
69.29977930078762
 20
3.591187538444
 30
0.0
 40
0.2
100
AcDbArc
 50
118.5653149722138
 51
219.9999999999985
  0
LINE
  5
99
330
1F
100
AcDbEntity
  8
0
  6
CONTINUOUS
 62
     3
100
AcDbLine
 10
69.63174504533562
 20
2.884421404394825
 30
0.0
 11
69.14657041216718
 21
3.462630016508921
 31
0.0
  0
LINE
  5
9A
330
1F
100
AcDbEntity
  8
0
  6
CONTINUOUS
 62
     3
100
AcDbLine
 10
67.33361171597855
 20
0.9560585753353728
 30
0.0
 11
69.63174504533562
 21
2.884421404394825
 31
0.0
  0
ARC
  5
9B
330
1F
100
AcDbEntity
  8
0
  6
CONTINUOUS
 62
     3
100
AcDbCircle
 10
81.52877194867401
 20
-1.209844317925219
 30
0.0
 40
0.2
100
AcDbArc
 50
18.56531497220906
 51
120.0000000000005
  0
ARC
  5
9C
330
1F
100
AcDbEntity
  8
0
  6
CONTINUOUS
 62
     3
100
AcDbCircle
 10
73.40000359475607
 20
-3.939999999999985
 30
0.0
 40
8.199999999999999
100
AcDbArc
 50
19.45971403479699
 51
40.54028596521575
  0
LINE
  5
9D
330
1F
100
AcDbEntity
  8
0
  6
CONTINUOUS
 62
     3
100
AcDbLine
 10
79.27509793370463
 20
1.184038105687858
 30
0.0
 11
80.77509793370443
 21
-1.41403810566557
 31
0.0
  0
LINE
  5
9E
330
1F
100
AcDbEntity
  8
0
  6
CONTINUOUS
 62
     3
100
AcDbLine
 10
80.77509793370443
 20
-1.41403810566557
 30
0.0
 11
81.42877194867275
 21
-1.036639237161355
 31
0.0
  0
ARC
  5
9F
330
1F
100
AcDbEntity
  8
0
  6
CONTINUOUS
 62
     3
100
AcDbCircle
 10
80.10477899532842
 20
-9.285709665501402
 30
0.0
 40
0.2
100
AcDbArc
 50
219.9999999999989
 51
321.4346850277993
  0
LINE
  5
A0
330
1F
100
AcDbEntity
  8
0
  6
CONTINUOUS
 62
     3
100
AcDbLine
 10
79.46639547353649
 20
-8.836058575325
 30
0.0
 11
79.95157010670461
 21
-9.414267187438712
 31
0.0
  0
LINE
  5
A1
330
1F
100
AcDbEntity
  8
0
  6
CONTINUOUS
 62
     3
100
AcDbLine
 10
79.46639547353648
 20
-8.836058575325014
 30
0.0
 11
77.16826214417941
 21
-10.76442140438445
 31
0.0
  0
ARC
  5
A2
330
1F
100
AcDbEntity
  8
0
  6
CONTINUOUS
 62
     3
100
AcDbCircle
 10
73.40000359475607
 20
-3.939999999999985
 30
0.0
 40
8.199999999999999
100
AcDbArc
 50
299.4597140348146
 51
320.5402859652334
  0
ARC
  5
A3
330
1F
100
AcDbEntity
  8
0
  6
CONTINUOUS
 62
     3
100
AcDbCircle
 10
77.50022788872406
 20
-11.47118753843586
 30
0.0
 40
0.2
100
AcDbArc
 50
298.5653149722092
 51
399.9999999999989
  0
LINE
  5
A4
330
1F
100
AcDbEntity
  8
0
  6
CONTINUOUS
 62
     3
100
AcDbLine
 10
77.16826214417941
 20
-10.76442140438445
 30
0.0
 11
77.65343677734785
 21
-11.34263001649855
 31
0.0
  0
ARC
  5
A5
330
1F
100
AcDbEntity
  8
0
  6
CONTINUOUS
 62
     3
100
AcDbCircle
 10
65.27123524083817
 20
-6.670155682066481
 30
0.0
 40
0.2
100
AcDbArc
 50
198.5653149722097
 51
300.0000000000015
  0
ARC
  5
A6
330
1F
100
AcDbEntity
  8
0
  6
CONTINUOUS
 62
     3
100
AcDbCircle
 10
73.40000359475607
 20
-3.939999999999985
 30
0.0
 40
8.199999999999999
100
AcDbArc
 50
199.4597140347525
 51
220.5402859651713
  0
LINE
  5
A7
330
1F
100
AcDbEntity
  8
0
  6
CONTINUOUS
 62
     3
100
AcDbLine
 10
67.52490925581041
 20
-9.064038105677499
 30
0.0
 11
66.87123524084252
 21
-9.441436974181444
 31
0.0
  0
LINE
  5
A8
330
1F
100
AcDbEntity
  8
0
  6
CONTINUOUS
 62
     3
100
AcDbLine
 10
67.5249092558104
 20
-9.064038105677485
 30
0.0
 11
66.0249092558106
 21
-6.465961894324069
 31
0.0
  0
LINE
  5
A9
330
1F
100
AcDbEntity
  8
0
  6
CONTINUOUS
 62
     3
100
AcDbLine
 10
66.0249092558106
 20
-6.465961894324069
 30
0.0
 11
65.37123524084228
 21
-6.84336076282827
 31
0.0
  0
ARC
  5
AA
330
1F
100
AcDbEntity
  8
0
  6
CONTINUOUS
 62
     3
100
AcDbCircle
 10
79.82877194867382
 20
1.734642054941755
 30
0.0
 40
0.2
100
AcDbArc
 50
300.0000000000016
 51
401.4346850277987
  0
LINE
  5
AB
330
1F
100
AcDbEntity
  8
0
  6
CONTINUOUS
 62
     3
100
AcDbLine
 10
79.27509793370462
 20
1.184038105687872
 30
0.0
 11
79.92877194867251
 21
1.561436974191803
 31
0.0
  0
ARC
  5
AC
330
1F
100
AcDbEntity
  8
0
  6
CONTINUOUS
 62
     3
100
AcDbCircle
 10
66.97123524083841
 20
-9.614642054933428
 30
0.0
 40
0.2
100
AcDbArc
 50
120.0000000000015
 51
221.4346850277998
  0
CIRCLE
  5
AD
330
1F
100
AcDbEntity
  8
0
  6
CONTINUOUS
 62
     3
100
AcDbCircle
 10
-73.40000359472974
 20
-3.940000000002202
 30
0.0
 40
8.775
  0
CIRCLE
  5
AE
330
1F
100
AcDbEntity
  8
0
  6
CONTINUOUS
 62
     3
100
AcDbCircle
 10
-73.40000359472974
 20
-3.940000000002202
 30
0.0
 40
3.0
  0
CIRCLE
  5
AF
330
1F
100
AcDbEntity
  8
0
  6
CONTINUOUS
 62
     3
100
AcDbCircle
 10
-73.40000359474007
 20
-3.94
 30
0.0
 40
10.5
  0
LINE
  5
B0
330
1F
100
AcDbEntity
  8
0
  6
CONTINUOUS
 62
     3
100
AcDbLine
 10
-1.000002641065734
 20
-2.039999999999994
 30
0.0
 11
-1.000002641065734
 21
-5.839999999999991
 31
0.0
  0
CIRCLE
  5
B1
330
1F
100
AcDbEntity
  8
0
  6
CONTINUOUS
 62
     3
100
AcDbCircle
 10
-67.40000359472974
 20
-3.940000000002202
 30
0.0
 40
0.7849999999999966
  0
CIRCLE
  5
B2
330
1F
100
AcDbEntity
  8
0
  6
CONTINUOUS
 62
     3
100
AcDbCircle
 10
-79.40000359472973
 20
-3.940000000002202
 30
0.0
 40
0.7849999999999966
  0
LINE
  5
B3
330
1F
100
AcDbEntity
  8
0
  6
CONTINUOUS
 62
     3
100
AcDbLine
 10
35.1999962145249
 20
4.835000000013803
 30
0.0
 11
34.39999640526017
 21
4.835000000013782
 31
0.0
  0
LINE
  5
B4
330
1F
100
AcDbEntity
  8
0
  6
CONTINUOUS
 62
     3
100
AcDbLine
 10
35.19998997870378
 20
-12.71499999998718
 30
0.0
 11
34.39999640525971
 21
-12.71499999998718
 31
0.0
  0
LINE
  5
B5
330
1F
100
AcDbEntity
  8
0
  6
CENTER
 62
     9
100
AcDbLine
 10
73.40000359475607
 20
-16.43999999999998
 30
0.0
 11
73.40000359475607
 21
8.560000000000013
 31
0.0
  0
LINE
  5
B6
330
1F
100
AcDbEntity
  8
0
  6
CENTER
 62
     9
100
AcDbLine
 10
60.90000359475607
 20
-3.939999999999985
 30
0.0
 11
85.90000359475607
 21
-3.939999999999985
 31
0.0
  0
LINE
  5
B7
330
1F
100
AcDbEntity
  8
0
  6
CENTER
 62
     9
100
AcDbLine
 10
-73.40000359474804
 20
8.559999999999999
 30
0.0
 11
-73.40000359475609
 21
-16.43999999999997
 31
0.0
  0
LINE
  5
B8
330
1F
100
AcDbEntity
  8
0
  6
CENTER
 62
     9
100
AcDbLine
 10
39.19998997870344
 20
-3.939999999999985
 30
0.0
 11
-8.90000359474007
 21
-3.939999999999985
 31
0.0
  0
LINE
  5
B9
330
1F
100
AcDbEntity
  8
0
  6
CENTER
 62
     9
100
AcDbLine
 10
-60.9000035947561
 20
-3.939999999999985
 30
0.0
 11
-85.90000359475607
 21
-3.939999999999985
 31
0.0
  0
LINE
  5
BA
330
1F
100
AcDbEntity
  8
0
  6
CONTINUOUS
 62
     9
100
AcDbLine
 10
-79.58553958435887
 20
-4.702759068484728
 30
0.0
 11
-83.90000359474007
 21
-22.44
 31
0.0
  0
INSERT
  5
BB
330
1F
100
AcDbEntity
  8
0
 62
     9
100
AcDbBlockReference
  2
_OPEN30
 10
-79.58553958435887
 20
-4.702759068484728
 30
0.0
 41
3.000002787824364
 42
2.999989273978464
 50
76.32869286776567
  0
CIRCLE
  5
BC
330
1F
100
AcDbEntity
  8
0
  6
CONTINUOUS
 62
     9
100
AcDbCircle
 10
-67.40000359472974
 20
-3.940000000002202
 30
0.0
 40
1.0
  0
CIRCLE
  5
BD
330
1F
100
AcDbEntity
  8
0
  6
CONTINUOUS
 62
     9
100
AcDbCircle
 10
-79.40000359472973
 20
-3.940000000002202
 30
0.0
 40
1.0
  0
LINE
  5
BE
330
1F
100
AcDbEntity
  8
LAYER0005
  6
CONTINUOUS
 62
     3
100
AcDbLine
 10
-2.000002641065734
 20
-4.940000089406896
 30
0.0
 11
-6.700003594740085
 21
-4.940000089406892
 31
0.0
  0
LINE
  5
BF
330
1F
100
AcDbEntity
  8
LAYER0005
  6
CONTINUOUS
 62
     3
100
AcDbLine
 10
-6.700003594740071
 20
-2.940000089406896
 30
0.0
 11
-2.000002641065734
 21
-2.940000089406896
 31
0.0
  0
LINE
  5
C0
330
1F
100
AcDbEntity
  8
LAYER0005
  6
CONTINUOUS
 62
     3
100
AcDbLine
 10
-6.900003594740074
 20
-4.740000089406893
 30
0.0
 11
-6.900003594740074
 21
-3.140000084564095
 31
0.0
  0
ARC
  5
C1
330
1F
100
AcDbEntity
  8
LAYER0005
  6
CONTINUOUS
 62
     3
100
AcDbCircle
 10
-6.700003594740071
 20
-3.140000084564095
 30
0.0
 40
0.2
100
AcDbArc
 50
89.99999999999999
 51
180.0
  0
ARC
  5
C2
330
1F
100
AcDbEntity
  8
LAYER0005
  6
CONTINUOUS
 62
     3
100
AcDbCircle
 10
-6.700003594740085
 20
-4.740000089406893
 30
0.0
 40
0.2
100
AcDbArc
 50
180.0
 51
270.0
  0
LINE
  5
C3
330
1F
100
AcDbEntity
  8
LAYER0005
  6
CONTINUOUS
 62
     3
100
AcDbLine
 10
-0.4000026410657256
 20
-4.939999999999985
 30
0.0
 11
-0.5700026410657273
 21
-4.939999999999985
 31
0.0
  0
LINE
  5
C4
330
1F
100
AcDbEntity
  8
LAYER0005
  6
CONTINUOUS
 62
     3
100
AcDbLine
 10
-0.5700026410657273
 20
-2.94000008940691
 30
0.0
 11
-0.4000026410657256
 21
-2.94000008940691
 31
0.0
  0
LINE
  5
C5
330
1F
100
AcDbEntity
  8
LAYER0010
  6
CONTINUOUS
 62
     3
100
AcDbLine
 10
-1.000002641065734
 20
-1.939999999999985
 30
0.0
 11
-1.000002641065734
 21
-5.939999999999985
 31
0.0
  0
LINE
  5
C6
330
1F
100
AcDbEntity
  8
LAYER0010
  6
CONTINUOUS
 62
     3
100
AcDbLine
 10
-0.7000026410657227
 20
-5.939999999999985
 30
0.0
 11
-0.7000026410657227
 21
-1.939999999999985
 31
0.0
  0
LINE
  5
C7
330
1F
100
AcDbEntity
  8
LAYER0009
  6
CONTINUOUS
 62
     3
100
AcDbLine
 10
-0.5700026410657273
 20
-5.939999999999985
 30
0.0
 11
-0.5700026410657273
 21
-1.939999999999985
 31
0.0
  0
LINE
  5
C8
330
1F
100
AcDbEntity
  8
LAYER0009
  6
CONTINUOUS
 62
     3
100
AcDbLine
 10
-0.5700026410657273
 20
-1.939999999999985
 30
0.0
 11
-1.000002641065734
 21
-1.939999999999985
 31
0.0
  0
LINE
  5
C9
330
1F
100
AcDbEntity
  8
LAYER0009
  6
CONTINUOUS
 62
     3
100
AcDbLine
 10
-0.5700026410657273
 20
-5.939999999999985
 30
0.0
 11
-1.000002641065734
 21
-5.939999999999985
 31
0.0
  0
LINE
  5
CA
330
1F
100
AcDbEntity
  8
LAYER0009
  6
CONTINUOUS
 62
     3
100
AcDbLine
 10
-1.100002641065728
 20
-1.939999999999985
 30
0.0
 11
-1.900002641065726
 21
-1.939999999999985
 31
0.0
  0
LINE
  5
CB
330
1F
100
AcDbEntity
  8
LAYER0009
  6
CONTINUOUS
 62
     3
100
AcDbLine
 10
-1.100002641065736
 20
-5.939999999999984
 30
0.0
 11
-1.900002641065726
 21
-5.939999999999984
 31
0.0
  0
LINE
  5
CC
330
1F
100
AcDbEntity
  8
LAYER0003
  6
CONTINUOUS
 62
     3
100
AcDbLine
 10
-0.4000026410657256
 20
-1.089999999999991
 30
0.0
 11
-0.4000026410657256
 21
-6.78999999999998
 31
0.0
  0
LINE
  5
CD
330
1F
100
AcDbEntity
  8
LAYER0003
  6
CONTINUOUS
 62
     3
100
AcDbLine
 10
-0.2500026410657199
 20
-0.9399999999999995
 30
0.0
 11
0.3999964052599268
 21
-0.9399999999999995
 31
0.0
  0
LINE
  5
CE
330
1F
100
AcDbEntity
  8
LAYER0003
  6
CONTINUOUS
 62
     3
100
AcDbLine
 10
-0.2500026410657199
 20
-0.9399999999999995
 30
0.0
 11
-0.4000026410657256
 21
-1.089999999999991
 31
0.0
  0
LINE
  5
CF
330
1F
100
AcDbEntity
  8
LAYER0003
  6
CONTINUOUS
 62
     3
100
AcDbLine
 10
-0.2500026410657199
 20
-6.939999999999985
 30
0.0
 11
0.3999964052599268
 21
-6.939999999999985
 31
0.0
  0
LINE
  5
D0
330
1F
100
AcDbEntity
  8
LAYER0003
  6
CONTINUOUS
 62
     3
100
AcDbLine
 10
-0.4000026410657256
 20
-6.78999999999998
 30
0.0
 11
-0.2500026410657199
 21
-6.939999999999985
 31
0.0
  0
LINE
  5
D1
330
1F
100
AcDbEntity
  8
LAYER0013
  6
CONTINUOUS
 62
     3
100
AcDbLine
 10
35.99998997870344
 20
-8.276664488513505
 30
0.0
 11
36.49998997870345
 21
-8.276664488513505
 31
0.0
  0
LINE
  5
D2
330
1F
100
AcDbEntity
  8
LAYER0013
  6
CONTINUOUS
 62
     3
100
AcDbLine
 10
35.99998997870344
 20
-9.687463885405778
 30
0.0
 11
36.49998997870345
 21
-9.687463885405778
 31
0.0
  0
LINE
  5
D3
330
1F
100
AcDbEntity
  8
LAYER0013
  6
CONTINUOUS
 62
     3
100
AcDbLine
 10
36.49998997870345
 20
-8.276664488513505
 30
0.0
 11
36.49998997870345
 21
-9.687463885405778
 31
0.0
  0
ARC
  5
D4
330
1F
100
AcDbEntity
  8
LAYER0013
  6
CONTINUOUS
 62
     3
100
AcDbCircle
 10
36.59998997870345
 20
2.252853089020956
 30
0.0
 40
0.6
100
AcDbArc
 50
0.0
 51
90.0
  0
LINE
  5
D5
330
1F
100
AcDbEntity
  8
LAYER0013
  6
CONTINUOUS
 62
     3
100
AcDbLine
 10
36.59998997870345
 20
2.852853089020965
 30
0.0
 11
35.99998997870344
 21
2.852853089020965
 31
0.0
  0
LINE
  5
D6
330
1F
100
AcDbEntity
  8
LAYER0013
  6
CONTINUOUS
 62
     3
100
AcDbLine
 10
37.19998997870344
 20
2.252853089020956
 30
0.0
 11
37.19998997870344
 21
-10.13285308902094
 31
0.0
  0
LINE
  5
D7
330
1F
100
AcDbEntity
  8
LAYER0013
  6
CONTINUOUS
 62
     3
100
AcDbLine
 10
35.99998997870344
 20
-8.276664488513505
 30
0.0
 11
36.49998997870345
 21
-8.276664488513505
 31
0.0
  0
LINE
  5
D8
330
1F
100
AcDbEntity
  8
LAYER0013
  6
CONTINUOUS
 62
     3
100
AcDbLine
 10
35.99998997870344
 20
-9.687463885405778
 30
0.0
 11
36.49998997870345
 21
-9.687463885405778
 31
0.0
  0
LINE
  5
D9
330
1F
100
AcDbEntity
  8
LAYER0013
  6
CONTINUOUS
 62
     3
100
AcDbLine
 10
36.49998997870345
 20
-8.276664488513505
 30
0.0
 11
36.49998997870345
 21
-9.687463885405778
 31
0.0
  0
LINE
  5
DA
330
1F
100
AcDbEntity
  8
LAYER0013
  6
CONTINUOUS
 62
     3
100
AcDbLine
 10
36.59998997870345
 20
-10.73285308902095
 30
0.0
 11
35.99998997870344
 21
-10.73285308902095
 31
0.0
  0
ARC
  5
DB
330
1F
100
AcDbEntity
  8
LAYER0013
  6
CONTINUOUS
 62
     3
100
AcDbCircle
 10
36.59998997870345
 20
-10.13285308902094
 30
0.0
 40
0.6
100
AcDbArc
 50
270.0
 51
360.0
  0
CIRCLE
  5
DC
330
1F
100
AcDbEntity
  8
LAYER0013
  6
CONTINUOUS
 62
     3
100
AcDbCircle
 10
73.40000359475896
 20
-3.939999999989654
 30
0.0
 40
8.774999999997114
  0
ARC
  5
DD
330
1F
100
AcDbEntity
  8
LAYER0013
  6
CONTINUOUS
 62
     3
100
AcDbCircle
 10
36.59998997870345
 20
2.252853089020956
 30
0.0
 40
0.6
100
AcDbArc
 50
0.0
 51
90.0
  0
LINE
  5
DE
330
1F
100
AcDbEntity
  8
LAYER0013
  6
CONTINUOUS
 62
     3
100
AcDbLine
 10
35.99998997870337
 20
3.304202590308943
 30
0.0
 11
35.99998997870364
 21
-10.83999999999891
 31
0.0
  0
LINE
  5
DF
330
1F
100
AcDbEntity
  8
LAYER0013
  6
CONTINUOUS
 62
     3
100
AcDbLine
 10
36.59998997870345
 20
2.852853089020965
 30
0.0
 11
35.99998997870344
 21
2.852853089020965
 31
0.0
  0
LINE
  5
E0
330
1F
100
AcDbEntity
  8
LAYER0013
  6
CONTINUOUS
 62
     3
100
AcDbLine
 10
37.19998997870344
 20
2.252853089020956
 30
0.0
 11
37.19998997870344
 21
-10.13285308902094
 31
0.0
  0
LINE
  5
E1
330
1F
100
AcDbEntity
  8
LAYER0013
  6
CONTINUOUS
 62
     3
100
AcDbLine
 10
36.59998997870345
 20
-10.73285308902094
 30
0.0
 11
35.99998997870344
 21
-10.73285308902094
 31
0.0
  0
ARC
  5
E2
330
1F
100
AcDbEntity
  8
LAYER0013
  6
CONTINUOUS
 62
     3
100
AcDbCircle
 10
36.59998997870345
 20
-10.13285308902094
 30
0.0
 40
0.6
100
AcDbArc
 50
270.0
 51
360.0
  0
LINE
  5
E3
330
1F
100
AcDbEntity
  8
LAYER0013
  6
CONTINUOUS
 62
     3
100
AcDbLine
 10
35.99998997870344
 20
-8.276664488513505
 30
0.0
 11
36.49998997870344
 21
-8.276664488513505
 31
0.0
  0
LINE
  5
E4
330
1F
100
AcDbEntity
  8
LAYER0013
  6
CONTINUOUS
 62
     3
100
AcDbLine
 10
35.99998997870344
 20
-9.687463885405778
 30
0.0
 11
36.49998997870344
 21
-9.687463885405778
 31
0.0
  0
LINE
  5
E5
330
1F
100
AcDbEntity
  8
LAYER0013
  6
CONTINUOUS
 62
     3
100
AcDbLine
 10
36.49998997870344
 20
-8.276664488513505
 30
0.0
 11
36.49998997870344
 21
-9.687463885405778
 31
0.0
  0
LINE
  5
E6
330
1F
100
AcDbEntity
  8
LAYER0013
  6
CONTINUOUS
 62
     3
100
AcDbLine
 10
35.99998997870344
 20
-3.939999999999985
 30
0.0
 11
35.99998997870344
 21
-10.73285308902094
 31
0.0
  0
LINE
  5
E7
330
1F
100
AcDbEntity
  8
LAYER0013
  6
CONTINUOUS
 62
     3
100
AcDbLine
 10
35.99998997870374
 20
-11.13999999999888
 30
0.0
 11
35.99998997870364
 21
-10.83999999999891
 31
0.0
  0
LINE
  5
E8
330
1F
100
AcDbEntity
  8
LAYER0013
  6
CONTINUOUS
 62
     3
100
AcDbLine
 10
35.39999648714951
 20
-11.28999763111927
 30
0.0
 11
35.99998997870337
 21
-11.18420259030884
 31
0.0
  0
CIRCLE
  5
E9
330
1F
100
AcDbEntity
  8
LAYER0013
  6
CONTINUOUS
 62
     3
100
AcDbCircle
 10
-73.40000359472974
 20
-3.940000000002202
 30
0.0
 40
1.0
  0
CIRCLE
  5
EA
330
1F
100
AcDbEntity
  8
LAYER0013
  6
CONTINUOUS
 62
     3
100
AcDbCircle
 10
-73.40000359472974
 20
-3.940000000002202
 30
0.0
 40
2.0
  0
CIRCLE
  5
EB
330
1F
100
AcDbEntity
  8
LAYER0013
  6
CONTINUOUS
 62
     3
100
AcDbCircle
 10
-73.40000359472974
 20
-3.940000000002202
 30
0.0
 40
9.775
  0
LINE
  5
EC
330
1F
100
AcDbEntity
  8
LAYER0013
  6
CONTINUOUS
 62
     3
100
AcDbLine
 10
-2.000002641065734
 20
-2.039999999999987
 30
0.0
 11
-2.000002641065734
 21
-5.839999999999982
 31
0.0
  0
LINE
  5
ED
330
1F
100
AcDbEntity
  8
LAYER0013
  6
CONTINUOUS
 62
     3
100
AcDbLine
 10
-2.000002641065734
 20
-2.039999999999987
 30
0.0
 11
-1.900002641065726
 21
-1.939999999999985
 31
0.0
  0
LINE
  5
EE
330
1F
100
AcDbEntity
  8
LAYER0013
  6
CONTINUOUS
 62
     3
100
AcDbLine
 10
-1.100002641065728
 20
-1.939999999999985
 30
0.0
 11
-1.000002641065734
 21
-2.039999999999987
 31
0.0
  0
LINE
  5
EF
330
1F
100
AcDbEntity
  8
LAYER0013
  6
CONTINUOUS
 62
     3
100
AcDbLine
 10
-2.000002641065734
 20
-5.839999999999982
 30
0.0
 11
-1.900002641065726
 21
-5.939999999999984
 31
0.0
  0
LINE
  5
F0
330
1F
100
AcDbEntity
  8
LAYER0013
  6
CONTINUOUS
 62
     3
100
AcDbLine
 10
-1.000002641065734
 20
-5.839999999999982
 30
0.0
 11
-1.100002641065728
 21
-5.939999999999984
 31
0.0
  0
LINE
  5
F1
330
1F
100
AcDbEntity
  8
LAYER0007
  6
CONTINUOUS
 62
     3
100
AcDbLine
 10
38.90000359475579
 20
3.060000089529705
 30
0.0
 11
38.90000359475579
 21
2.760000089529708
 31
0.0
  0
LINE
  5
F2
330
1F
100
AcDbEntity
  8
LAYER0007
  6
CONTINUOUS
 62
     3
100
AcDbLine
 10
38.90000359475579
 20
-10.94000008952969
 30
0.0
 11
38.90000359475579
 21
-10.64000008952969
 31
0.0
  0
LINE
  5
F3
330
1F
100
AcDbEntity
  8
LAYER0007
  6
CONTINUOUS
 62
     3
100
AcDbLine
 10
38.90000359475577
 20
3.060000089529705
 30
0.0
 11
38.90000359475577
 21
2.760000089529722
 31
0.0
  0
LINE
  5
F4
330
1F
100
AcDbEntity
  8
LAYER0007
  6
CONTINUOUS
 62
     3
100
AcDbLine
 10
35.99998997870345
 20
3.060000089529705
 30
0.0
 11
38.90000359475579
 21
3.060000089529705
 31
0.0
  0
LINE
  5
F5
330
1F
100
AcDbEntity
  8
LAYER0007
  6
CONTINUOUS
 62
     3
100
AcDbLine
 10
38.90000359475579
 20
2.760000089529708
 30
0.0
 11
36.92061736348987
 21
2.760000089529708
 31
0.0
  0
LINE
  5
F6
330
1F
100
AcDbEntity
  8
LAYER0007
  6
CONTINUOUS
 62
     3
100
AcDbLine
 10
35.99998997870345
 20
-10.94000008952969
 30
0.0
 11
38.90000359475579
 21
-10.94000008952969
 31
0.0
  0
LINE
  5
F7
330
1F
100
AcDbEntity
  8
LAYER0007
  6
CONTINUOUS
 62
     3
100
AcDbLine
 10
38.90000359475579
 20
-10.64000008952969
 30
0.0
 11
36.92061736348987
 21
-10.64000008952969
 31
0.0
  0
LINE
  5
F8
330
1F
100
AcDbEntity
  8
LAYER0007
  6
CONTINUOUS
 62
     3
100
AcDbLine
 10
35.99998997870345
 20
3.060000089529705
 30
0.0
 11
38.90000359475577
 21
3.060000089529705
 31
0.0
  0
LINE
  5
F9
330
1F
100
AcDbEntity
  8
LAYER0007
  6
CONTINUOUS
 62
     3
100
AcDbLine
 10
38.90000359475577
 20
2.760000089529722
 30
0.0
 11
36.92061736348985
 21
2.760000089529708
 31
0.0
  0
LINE
  5
FA
330
1F
100
AcDbEntity
  8
LAYER0007
  6
CONTINUOUS
 62
     3
100
AcDbLine
 10
35.99998997870345
 20
-10.94000008952969
 30
0.0
 11
38.90000359475577
 21
-10.94000008952969
 31
0.0
  0
LINE
  5
FB
330
1F
100
AcDbEntity
  8
LAYER0007
  6
CONTINUOUS
 62
     3
100
AcDbLine
 10
38.90000359475577
 20
-10.64000008952969
 30
0.0
 11
36.92061736348985
 21
-10.64000008952969
 31
0.0
  0
LINE
  5
FC
330
1F
100
AcDbEntity
  8
0
  6
CONTINUOUS
 62
     3
100
AcDbLine
 10
72.30000359475896
 20
2.560000000077803
 30
0.0
 11
72.30000359475895
 21
3.060000000077988
 31
0.0
  0
LINE
  5
FD
330
1F
100
AcDbEntity
  8
0
  6
CONTINUOUS
 62
     3
100
AcDbLine
 10
72.30000359475895
 20
3.060000000077988
 30
0.0
 11
74.50000359475895
 21
3.060000000077988
 31
0.0
  0
LINE
  5
FE
330
1F
100
AcDbEntity
  8
0
  6
CONTINUOUS
 62
     3
100
AcDbLine
 10
72.30000359475896
 20
2.560000000077803
 30
0.0
 11
74.50000359475895
 21
2.560000000077803
 31
0.0
  0
LINE
  5
FF
330
1F
100
AcDbEntity
  8
0
  6
CONTINUOUS
 62
     3
100
AcDbLine
 10
74.50000359475895
 20
2.560000000077803
 30
0.0
 11
74.50000359475895
 21
3.060000000077988
 31
0.0
  0
LINE
  5
100
330
1F
100
AcDbEntity
  8
0
  6
CONTINUOUS
 62
     3
100
AcDbLine
 10
74.50000359475895
 20
-10.44000000006752
 30
0.0
 11
74.50000359475895
 21
-10.9400000000677
 31
0.0
  0
LINE
  5
101
330
1F
100
AcDbEntity
  8
0
  6
CONTINUOUS
 62
     3
100
AcDbLine
 10
72.30000359475896
 20
-10.44000000006752
 30
0.0
 11
74.50000359475895
 21
-10.44000000006752
 31
0.0
  0
LINE
  5
102
330
1F
100
AcDbEntity
  8
0
  6
CONTINUOUS
 62
     3
100
AcDbLine
 10
72.30000359475895
 20
-10.9400000000677
 30
0.0
 11
74.50000359475895
 21
-10.9400000000677
 31
0.0
  0
LINE
  5
103
330
1F
100
AcDbEntity
  8
0
  6
CONTINUOUS
 62
     3
100
AcDbLine
 10
72.30000359475896
 20
-10.44000000006752
 30
0.0
 11
72.30000359475895
 21
-10.9400000000677
 31
0.0
  0
LINE
  5
104
330
1F
100
AcDbEntity
  8
LAYER0008
  6
CONTINUOUS
 62
     3
100
AcDbLine
 10
71.60000359475608
 20
2.352853089030216
 30
0.0
 11
71.60000359475608
 21
2.210000000082896
 31
0.0
  0
ARC
  5
105
330
1F
100
AcDbEntity
  8
LAYER0008
  6
CONTINUOUS
 62
     3
100
AcDbCircle
 10
71.10000359475608
 20
2.352853089030216
 30
0.0
 40
0.5
100
AcDbArc
 50
0.0
 51
110.077054400901
  0
LINE
  5
106
330
1F
100
AcDbEntity
  8
LAYER0008
  6
CONTINUOUS
 62
     3
100
AcDbLine
 10
75.20000359475607
 20
2.210000000082896
 30
0.0
 11
75.20000359475607
 21
2.352853089032319
 31
0.0
  0
ARC
  5
107
330
1F
100
AcDbEntity
  8
LAYER0008
  6
CONTINUOUS
 62
     3
100
AcDbCircle
 10
75.70000359475607
 20
2.352853089032319
 30
0.0
 40
0.5
100
AcDbArc
 50
69.92294559915118
 51
180.0
  0
ARC
  5
108
330
1F
100
AcDbEntity
  8
LAYER0008
  6
CONTINUOUS
 62
     3
100
AcDbCircle
 10
73.40000359475896
 20
-3.939999999989654
 30
0.0
 40
7.200000000000003
100
AcDbArc
 50
290.0770544008427
 51
429.9229455991514
  0
LINE
  5
109
330
1F
100
AcDbEntity
  8
LAYER0008
  6
CONTINUOUS
 62
     3
100
AcDbLine
 10
75.20000359475607
 20
-10.09000000006438
 30
0.0
 11
75.20000359475607
 21
-10.2328530890138
 31
0.0
  0
ARC
  5
10A
330
1F
100
AcDbEntity
  8
LAYER0008
  6
CONTINUOUS
 62
     3
100
AcDbCircle
 10
75.70000359475607
 20
-10.2328530890138
 30
0.0
 40
0.5
100
AcDbArc
 50
180.0
 51
290.0770544008488
  0
LINE
  5
10B
330
1F
100
AcDbEntity
  8
LAYER0008
  6
CONTINUOUS
 62
     3
100
AcDbLine
 10
71.60000359475608
 20
-10.2328530890117
 30
0.0
 11
71.60000359475608
 21
-10.09000000006438
 31
0.0
  0
ARC
  5
10C
330
1F
100
AcDbEntity
  8
LAYER0008
  6
CONTINUOUS
 62
     3
100
AcDbCircle
 10
71.10000359475608
 20
-10.2328530890117
 30
0.0
 40
0.5
100
AcDbArc
 50
249.922945599099
 51
360.0
  0
ARC
  5
10D
330
1F
100
AcDbEntity
  8
LAYER0008
  6
CONTINUOUS
 62
     3
100
AcDbCircle
 10
73.40000359475896
 20
-3.939999999989654
 30
0.0
 40
7.200000000000003
100
AcDbArc
 50
110.077054400901
 51
249.922945599105
  0
LINE
  5
10E
330
1F
100
AcDbEntity
  8
LAYER0012
  6
CONTINUOUS
 62
     3
100
AcDbLine
 10
35.39999648714951
 20
3.409997631119364
 30
0.0
 11
35.99998997870337
 21
3.304202590308943
 31
0.0
  0
LINE
  5
10F
330
1F
100
AcDbEntity
  8
LAYER0012
  6
CONTINUOUS
 62
     3
100
AcDbLine
 10
35.99998997870374
 20
-11.18420259030879
 30
0.0
 11
35.99998997870374
 21
-6.939999999998891
 31
0.0
  0
ARC
  5
110
330
1F
100
AcDbEntity
  8
LAYER0012
  6
CONTINUOUS
 62
     3
100
AcDbCircle
 10
34.20000264108133
 20
6.359999999999996
 30
0.0
 40
0.2
100
AcDbArc
 50
0.0000000000010178
 51
90.0
  0
ARC
  5
111
330
1F
100
AcDbEntity
  8
LAYER0012
  6
CONTINUOUS
 62
     3
100
AcDbCircle
 10
34.19999640525971
 20
-14.23999999999989
 30
0.0
 40
0.2
100
AcDbArc
 50
270.0000000000124
 51
360.0
  0
LINE
  5
112
330
1F
100
AcDbEntity
  8
LAYER0012
  6
CONTINUOUS
 62
     3
100
AcDbLine
 10
34.39999640525971
 20
6.360000000000003
 30
0.0
 11
34.39999640525971
 21
-14.23999999999989
 31
0.0
  0
LINE
  5
113
330
1F
100
AcDbEntity
  8
LAYER0012
  6
CONTINUOUS
 62
     3
100
AcDbLine
 10
35.39998997870379
 20
4.635000000013807
 30
0.0
 11
35.39998997870379
 21
-12.51499999998611
 31
0.0
  0
ARC
  5
114
330
1F
100
AcDbEntity
  8
LAYER0012
  6
CONTINUOUS
 62
     3
100
AcDbCircle
 10
35.19998997870378
 20
-12.51499999998611
 30
0.0
 40
0.2
100
AcDbArc
 50
270.0000000000124
 51
360.0
  0
ARC
  5
115
330
1F
100
AcDbEntity
  8
LAYER0012
  6
CONTINUOUS
 62
     3
100
AcDbCircle
 10
35.1999962145249
 20
4.635000000013807
 30
0.0
 40
0.2
100
AcDbArc
 50
0.0000000000010178
 51
90.0
  0
LINE
  5
116
330
1F
100
AcDbEntity
  8
LAYER0013
  6
CENTER
 62
     9
100
AcDbLine
 10
-67.40000359472974
 20
-1.940000000002202
 30
0.0
 11
-67.40000359472974
 21
-5.940000000002202
 31
0.0
  0
LINE
  5
117
330
1F
100
AcDbEntity
  8
LAYER0013
  6
CENTER
 62
     9
100
AcDbLine
 10
-73.40000359475704
 20
-1.940000000005059
 30
0.0
 11
-73.40000359475512
 21
-5.940000000005059
 31
0.0
  0
LINE
  5
118
330
1F
100
AcDbEntity
  8
LAYER0013
  6
CENTER
 62
     9
100
AcDbLine
 10
-79.40000359478242
 20
-1.940000000002202
 30
0.0
 11
-79.40000359478242
 21
-5.940000000002202
 31
0.0
  0
LINE
  5
119
330
1F
100
AcDbEntity
  8
0
  6
CONTINUOUS
 62
     9
100
AcDbLine
 10
-79.40000359478242
 20
-0.9400000000022022
 30
0.0
 11
-79.40000359478242
 21
15.56
 31
0.0
  0
LINE
  5
11A
330
1F
100
AcDbEntity
  8
0
  6
CONTINUOUS
 62
     9
100
AcDbLine
 10
-67.40000359472974
 20
-0.9400000000022022
 30
0.0
 11
-67.40000359472974
 21
15.56
 31
0.0
  0
LINE
  5
11B
330
1F
100
AcDbEntity
  8
0
  6
CONTINUOUS
 62
     9
100
AcDbLine
 10
-7.670003690107492
 20
-4.940000089406896
 30
0.0
 11
-17.90000359474007
 21
-4.940000089406896
 31
0.0
  0
LINE
  5
11C
330
1F
100
AcDbEntity
  8
0
  6
CONTINUOUS
 62
     9
100
AcDbLine
 10
-7.670003690107478
 20
-2.940000089406896
 30
0.0
 11
-17.90000359474007
 21
-2.940000089406896
 31
0.0
  0
LINE
  5
11D
330
1F
100
AcDbEntity
  8
0
  6
CONTINUOUS
 62
     9
100
AcDbLine
 10
-16.90000359474007
 20
-4.940000089406896
 30
0.0
 11
-16.90000359474007
 21
-2.940000089406896
 31
0.0
  0
LINE
  5
11E
330
1F
100
AcDbEntity
  8
0
  6
CONTINUOUS
 62
     9
100
AcDbLine
 10
-2.900002641065726
 20
-5.939999999999984
 30
0.0
 11
-27.90000359474007
 21
-5.939999999999984
 31
0.0
  0
LINE
  5
11F
330
1F
100
AcDbEntity
  8
0
  6
CONTINUOUS
 62
     9
100
AcDbLine
 10
-2.900002641065726
 20
-1.939999999999985
 30
0.0
 11
-27.90000359474007
 21
-1.939999999999985
 31
0.0
  0
LINE
  5
120
330
1F
100
AcDbEntity
  8
0
  6
CONTINUOUS
 62
     9
100
AcDbLine
 10
-26.90000359474007
 20
-5.939999999999984
 30
0.0
 11
-26.90000359474007
 21
-1.939999999999985
 31
0.0
  0
LINE
  5
121
330
1F
100
AcDbEntity
  8
0
  6
CONTINUOUS
 62
     9
100
AcDbLine
 10
-1.25000264106572
 20
-6.939999999999985
 30
0.0
 11
-37.90000359474007
 21
-6.939999999999985
 31
0.0
  0
LINE
  5
122
330
1F
100
AcDbEntity
  8
0
  6
CONTINUOUS
 62
     9
100
AcDbLine
 10
-1.25000264106572
 20
-0.9399999999999995
 30
0.0
 11
-37.90000359474007
 21
-0.9399999999999995
 31
0.0
  0
LINE
  5
123
330
1F
100
AcDbEntity
  8
0
  6
CONTINUOUS
 62
     9
100
AcDbLine
 10
-36.90000359474007
 20
-6.939999999999985
 30
0.0
 11
-36.90000359474007
 21
-0.9399999999999995
 31
0.0
  0
LINE
  5
124
330
1F
100
AcDbEntity
  8
0
  6
CONTINUOUS
 62
     9
100
AcDbLine
 10
-6.900003594740074
 20
-2.140000084564095
 30
0.0
 11
-6.900003594740074
 21
23.56
 31
0.0
  0
LINE
  5
125
330
1F
100
AcDbEntity
  8
0
  6
CONTINUOUS
 62
     9
100
AcDbLine
 10
0.3999964052599268
 20
7.359999999999996
 30
0.0
 11
0.3999964052599268
 21
23.56
 31
0.0
  0
LINE
  5
126
330
1F
100
AcDbEntity
  8
0
  6
CONTINUOUS
 62
     9
100
AcDbLine
 10
-6.900003594740074
 20
22.56
 30
0.0
 11
0.3999964052599268
 21
22.56
 31
0.0
  0
LINE
  5
127
330
1F
100
AcDbEntity
  8
0
  6
CONTINUOUS
 62
     9
100
AcDbLine
 10
35.99998997870337
 20
4.304202590308943
 30
0.0
 11
35.99998997870337
 21
23.56
 31
0.0
  0
LINE
  5
128
330
1F
100
AcDbEntity
  8
0
  6
CONTINUOUS
 62
     9
100
AcDbLine
 10
38.90000359475577
 20
4.060000089529705
 30
0.0
 11
38.90000359475577
 21
23.56
 31
0.0
  0
LINE
  5
129
330
1F
100
AcDbEntity
  8
0
  6
CONTINUOUS
 62
     9
100
AcDbLine
 10
35.99998997870337
 20
22.56
 30
0.0
 11
38.90000359475577
 21
22.56
 31
0.0
  0
LINE
  5
12A
330
1F
100
AcDbEntity
  8
0
  6
CONTINUOUS
 62
     9
100
AcDbLine
 10
-0.4000026410657256
 20
-0.089999999999991
 30
0.0
 11
-0.4000026410657256
 21
15.56
 31
0.0
  0
LINE
  5
12B
330
1F
100
AcDbEntity
  8
0
  6
CONTINUOUS
 62
     9
100
AcDbLine
 10
0.3999964052599268
 20
7.359999999999996
 30
0.0
 11
0.3999964052599268
 21
15.56
 31
0.0
  0
LINE
  5
12C
330
1F
100
AcDbEntity
  8
0
  6
CONTINUOUS
 62
     9
100
AcDbLine
 10
-0.4000026410657256
 20
14.56
 30
0.0
 11
0.3999964052599268
 21
14.56
 31
0.0
  0
LINE
  5
12D
330
1F
100
AcDbEntity
  8
0
  6
CONTINUOUS
 62
     9
100
AcDbLine
 10
39.90000359475577
 20
-10.64000008952969
 30
0.0
 11
49.90000359475577
 21
-10.64000008952969
 31
0.0
  0
LINE
  5
12E
330
1F
100
AcDbEntity
  8
0
  6
CONTINUOUS
 62
     9
100
AcDbLine
 10
39.90000359475579
 20
2.760000089529708
 30
0.0
 11
49.90000359475577
 21
2.760000089529708
 31
0.0
  0
LINE
  5
12F
330
1F
100
AcDbEntity
  8
0
  6
CONTINUOUS
 62
     9
100
AcDbLine
 10
-0.4000026410657256
 20
-14.4399999999999
 30
0.0
 11
-48.18049139961812
 21
-14.4399999999999
 31
0.0
  0
LINE
  5
130
330
1F
100
AcDbEntity
  8
0
  6
CONTINUOUS
 62
     9
100
AcDbLine
 10
-0.4000026410657256
 20
6.559999999999999
 30
0.0
 11
-48.18049139961812
 21
6.559999999999999
 31
0.0
  0
LINE
  5
131
330
1F
100
AcDbEntity
  8
0
  6
CONTINUOUS
 62
     9
100
AcDbLine
 10
-83.90000359474007
 20
-22.44
 30
0.0
 11
-38.8685963480188
 21
-22.44
 31
0.0
  0
LINE
  5
132
330
1F
100
AcDbEntity
  8
0
  6
CONTINUOUS
 62
     9
100
AcDbLine
 10
-79.40000359478242
 20
14.56
 30
0.0
 11
-67.40000359472974
 21
14.56
 31
0.0
  0
INSERT
  5
133
330
1F
100
AcDbEntity
  8
0
 62
     9
100
AcDbBlockReference
  2
_OPEN30
 10
-79.40000359478242
 20
14.56
 30
0.0
 41
3.000002787824364
 42
2.999989273978464
 50
180.0
  0
INSERT
  5
134
330
1F
100
AcDbEntity
  8
0
 62
     9
100
AcDbBlockReference
  2
_OPEN30
 10
-67.40000359472974
 20
14.56
 30
0.0
 41
3.000002787824364
 42
2.999989273978464
 50
360.0
  0
LINE
  5
135
330
1F
100
AcDbEntity
  8
0
  6
CONTINUOUS
 62
     9
100
AcDbLine
 10
0.3999964052599268
 20
22.56
 30
0.0
 11
35.99998997870337
 21
22.56
 31
0.0
  0
INSERT
  5
136
330
1F
100
AcDbEntity
  8
0
 62
     9
100
AcDbBlockReference
  2
_OPEN30
 10
0.3999964052599268
 20
22.56
 30
0.0
 41
3.000002787824364
 42
2.999989273978464
 50
180.0
  0
INSERT
  5
137
330
1F
100
AcDbEntity
  8
0
 62
     9
100
AcDbBlockReference
  2
_OPEN30
 10
35.99998997870337
 20
22.56
 30
0.0
 41
3.000002787824364
 42
2.999989273978464
 50
360.0
  0
LINE
  5
138
330
1F
100
AcDbEntity
  8
0
  6
CONTINUOUS
 62
     9
100
AcDbLine
 10
48.90000359475577
 20
-10.64000008952969
 30
0.0
 11
48.90000359475577
 21
2.760000089529708
 31
0.0
  0
INSERT
  5
139
330
1F
100
AcDbEntity
  8
0
 62
     9
100
AcDbBlockReference
  2
_OPEN30
 10
48.90000359475577
 20
-10.64000008952969
 30
0.0
 41
3.000002787824364
 42
2.999989273978464
 50
270.0
  0
INSERT
  5
13A
330
1F
100
AcDbEntity
  8
0
 62
     9
100
AcDbBlockReference
  2
_OPEN30
 10
48.90000359475577
 20
2.760000089529708
 30
0.0
 41
3.000002787824364
 42
2.999989273978464
 50
90.0
  0
LINE
  5
13B
330
1F
100
AcDbEntity
  8
0
  6
CONTINUOUS
 62
     9
100
AcDbLine
 10
-46.90000359474007
 20
-14.4399999999999
 30
0.0
 11
-46.90000359474007
 21
6.559999999999999
 31
0.0
  0
INSERT
  5
13C
330
1F
100
AcDbEntity
  8
0
 62
     9
100
AcDbBlockReference
  2
_OPEN30
 10
-46.90000359474007
 20
-14.4399999999999
 30
0.0
 41
3.000002787824364
 42
2.999989273978464
 50
270.0
  0
INSERT
  5
13D
330
1F
100
AcDbEntity
  8
0
 62
     9
100
AcDbBlockReference
  2
_OPEN30
 10
-46.90000359474007
 20
6.559999999999999
 30
0.0
 41
3.000002787824364
 42
2.999989273978464
 50
90.0
  0
LINE
  5
13E
330
1F
100
AcDbEntity
  8
0
  6
CONTINUOUS
 62
     9
100
AcDbLine
 10
-36.90000359474007
 20
-11.93999999999999
 30
0.0
 11
-36.90000359474007
 21
-6.939999999999985
 31
0.0
  0
INSERT
  5
13F
330
1F
100
AcDbEntity
  8
0
 62
     9
100
AcDbBlockReference
  2
_OPEN30
 10
-36.90000359474007
 20
-6.939999999999985
 30
0.0
 41
3.000002787824364
 42
2.999989273978464
 50
90.0
  0
LINE
  5
140
330
1F
100
AcDbEntity
  8
0
  6
CONTINUOUS
 62
     9
100
AcDbLine
 10
-36.90000359474007
 20
4.060000000000001
 30
0.0
 11
-36.90000359474007
 21
-0.9399999999999995
 31
0.0
  0
INSERT
  5
141
330
1F
100
AcDbEntity
  8
0
 62
     9
100
AcDbBlockReference
  2
_OPEN30
 10
-36.90000359474007
 20
-0.9399999999999995
 30
0.0
 41
3.000002787824364
 42
2.999989273978464
 50
270.0
  0
LINE
  5
142
330
1F
100
AcDbEntity
  8
0
  6
CONTINUOUS
 62
     9
100
AcDbLine
 10
-26.90000359474007
 20
24.28
 30
0.0
 11
-26.90000359474007
 21
-1.939999999999984
 31
0.0
  0
INSERT
  5
143
330
1F
100
AcDbEntity
  8
0
 62
     9
100
AcDbBlockReference
  2
_OPEN30
 10
-26.90000359474007
 20
-1.939999999999984
 30
0.0
 41
3.000002787824364
 42
2.999989273978464
 50
270.0
  0
LINE
  5
144
330
1F
100
AcDbEntity
  8
0
  6
CONTINUOUS
 62
     9
100
AcDbLine
 10
-26.90000359474007
 20
-10.93999999999998
 30
0.0
 11
-26.90000359474007
 21
-5.939999999999984
 31
0.0
  0
INSERT
  5
145
330
1F
100
AcDbEntity
  8
0
 62
     9
100
AcDbBlockReference
  2
_OPEN30
 10
-26.90000359474007
 20
-5.939999999999984
 30
0.0
 41
3.000002787824364
 42
2.999989273978464
 50
90.0
  0
LINE
  5
146
330
1F
100
AcDbEntity
  8
0
  6
CONTINUOUS
 62
     9
100
AcDbLine
 10
-16.90000359474007
 20
28.44
 30
0.0
 11
-16.90000359474007
 21
-2.940000089406896
 31
0.0
  0
INSERT
  5
147
330
1F
100
AcDbEntity
  8
0
 62
     9
100
AcDbBlockReference
  2
_OPEN30
 10
-16.90000359474007
 20
-2.940000089406896
 30
0.0
 41
3.000002787824364
 42
2.999989273978464
 50
270.0
  0
LINE
  5
148
330
1F
100
AcDbEntity
  8
0
  6
CONTINUOUS
 62
     9
100
AcDbLine
 10
-16.90000359474007
 20
-9.940000089406896
 30
0.0
 11
-16.90000359474007
 21
-4.940000089406896
 31
0.0
  0
INSERT
  5
149
330
1F
100
AcDbEntity
  8
0
 62
     9
100
AcDbBlockReference
  2
_OPEN30
 10
-16.90000359474007
 20
-4.940000089406896
 30
0.0
 41
3.000002787824364
 42
2.999989273978464
 50
90.0
  0
LINE
  5
14A
330
1F
100
AcDbEntity
  8
0
  6
CONTINUOUS
 62
     9
100
AcDbLine
 10
-11.90000359474007
 20
22.56
 30
0.0
 11
-6.900003594740074
 21
22.56
 31
0.0
  0
INSERT
  5
14B
330
1F
100
AcDbEntity
  8
0
 62
     9
100
AcDbBlockReference
  2
_OPEN30
 10
-6.900003594740074
 20
22.56
 30
0.0
 41
3.000002787824364
 42
2.999989273978464
 50
360.0
  0
LINE
  5
14C
330
1F
100
AcDbEntity
  8
0
  6
CONTINUOUS
 62
     9
100
AcDbLine
 10
43.90000359475577
 20
22.56
 30
0.0
 11
38.90000359475577
 21
22.56
 31
0.0
  0
INSERT
  5
14D
330
1F
100
AcDbEntity
  8
0
 62
     9
100
AcDbBlockReference
  2
_OPEN30
 10
38.90000359475577
 20
22.56
 30
0.0
 41
3.000002787824364
 42
2.999989273978464
 50
180.0
  0
LINE
  5
14E
330
1F
100
AcDbEntity
  8
0
  6
CONTINUOUS
 62
     9
100
AcDbLine
 10
14.89777640525993
 20
14.56
 30
0.0
 11
0.3999964052599268
 21
14.56
 31
0.0
  0
INSERT
  5
14F
330
1F
100
AcDbEntity
  8
0
 62
     9
100
AcDbBlockReference
  2
_OPEN30
 10
0.3999964052599268
 20
14.56
 30
0.0
 41
3.000002787824364
 42
2.999989273978464
 50
180.0
  0
LINE
  5
150
330
1F
100
AcDbEntity
  8
0
  6
CONTINUOUS
 62
     9
100
AcDbLine
 10
-5.400002641065726
 20
14.56
 30
0.0
 11
-0.4000026410657256
 21
14.56
 31
0.0
  0
INSERT
  5
151
330
1F
100
AcDbEntity
  8
0
 62
     9
100
AcDbBlockReference
  2
_OPEN30
 10
-0.4000026410657256
 20
14.56
 30
0.0
 41
3.000002787824364
 42
2.999989273978464
 50
360.0
  0
TEXT
  5
152
330
1F
100
AcDbEntity
  8
0
 62
     7
100
AcDbText
 10
-76.60000359475609
 20
15.56
 30
0.0
 40
4.0
  1
12
 41
0.8000000000000007
  7
FDASTYLE0
 72
     5
 11
-70.20000359475608
 21
15.56
 31
0.0
100
AcDbText
  0
TEXT
  5
153
330
1F
100
AcDbEntity
  8
0
 62
     7
100
AcDbText
 10
-80.71518823649586
 20
-21.43999999999999
 30
0.0
 40
4.0
  1
2-Ｍ2（Ｐ＝0.4）
 41
0.7333333333333334
  7
FDASTYLE0
 72
     5
 11
-45.51518823649586
 21
-21.43999999999999
 31
0.0
100
AcDbText
  0
TEXT
  5
154
330
1F
100
AcDbEntity
  8
0
 62
     7
100
AcDbText
 10
-17.90000359474007
 20
7.559999999999999
 30
0.0
 40
4.0
  1
φ2
 50
90.0
 41
0.7272727272727273
  7
FDASTYLE0
 72
     5
 11
-17.90000359474007
 21
13.96
 31
0.0
100
AcDbText
  0
TEXT
  5
155
330
1F
100
AcDbEntity
  8
0
 62
     7
100
AcDbText
 10
-20.50000359474007
 20
14.96
 30
0.0
 40
2.6
  1
-0.005
 50
90.0
 41
0.7999999999999999
  7
FDASTYLE0
 72
     5
 11
-20.50000359474007
 21
27.44
 31
0.0
100
AcDbText
  0
TEXT
  5
156
330
1F
100
AcDbEntity
  8
0
 62
     7
100
AcDbText
 10
-17.70000359474007
 20
14.96
 30
0.0
 40
2.6
  1
-0.010
 50
90.0
 41
0.7999999999999999
  7
FDASTYLE0
 72
     5
 11
-17.70000359474007
 21
27.44
 31
0.0
100
AcDbText
  0
TEXT
  5
157
330
1F
100
AcDbEntity
  8
0
 62
     7
100
AcDbText
 10
-27.90000359474007
 20
7.559999999999999
 30
0.0
 40
4.0
  1
φ4
 50
90.0
 41
0.7272727272727271
  7
FDASTYLE0
 72
     5
 11
-27.90000359474007
 21
13.96
 31
0.0
100
AcDbText
  0
TEXT
  5
158
330
1F
100
AcDbEntity
  8
0
 62
     7
100
AcDbText
 10
-30.50000359474007
 20
14.96
 30
0.0
 40
2.6
  1
±0.2
 50
90.0
 41
0.7619047619047619
  7
FDASTYLE0
 72
     5
 11
-30.50000359474007
 21
23.28
 31
0.0
100
AcDbText
  0
TEXT
  5
159
330
1F
100
AcDbEntity
  8
0
 62
     7
100
AcDbText
 10
-37.90000359474007
 20
-12.84
 30
0.0
 40
4.0
  1
φ6
 50
90.0
 41
0.7272727272727279
  7
FDASTYLE0
 72
     5
 11
-37.90000359474007
 21
-6.439999999999989
 31
0.0
100
AcDbText
  0
TEXT
  5
15A
330
1F
100
AcDbEntity
  8
0
 62
     7
100
AcDbText
 10
-40.50000359474007
 20
-5.439999999999989
 30
0.0
 40
2.6
  1
+0.03
 50
90.0
 41
0.7999999999999999
  7
FDASTYLE0
 72
     5
 11
-40.50000359474007
 21
4.96000000000001
 31
0.0
100
AcDbText
  0
TEXT
  5
15B
330
1F
100
AcDbEntity
  8
0
 62
     7
100
AcDbText
 10
-37.70000359474007
 20
-5.439999999999989
 30
0.0
 40
2.6
  1
　0
 50
90.0
 41
0.7272727272727266
  7
FDASTYLE0
 72
     5
 11
-37.70000359474007
 21
-1.279999999999992
 31
0.0
100
AcDbText
  0
TEXT
  5
15C
330
1F
100
AcDbEntity
  8
0
 62
     7
100
AcDbText
 10
-8.050003594740073
 20
23.56
 30
0.0
 40
4.0
  1
7.3
 41
0.8000000000000002
  7
FDASTYLE0
 72
     5
 11
1.549996405259929
 21
23.56
 31
0.0
100
AcDbText
  0
TEXT
  5
15D
330
1F
100
AcDbEntity
  8
0
 62
     7
100
AcDbText
 10
11.79999319198165
 20
23.56
 30
0.0
 40
4.0
  1
35.6
 41
0.7999999999999999
  7
FDASTYLE0
 72
     5
 11
24.59999319198165
 21
23.56
 31
0.0
100
AcDbText
  0
TEXT
  5
15E
330
1F
100
AcDbEntity
  8
0
 62
     7
100
AcDbText
 10
32.64999678672957
 20
23.56
 30
0.0
 40
4.0
  1
2.9
 41
0.7999999999999995
  7
FDASTYLE0
 72
     5
 11
42.24999678672957
 21
23.56
 31
0.0
100
AcDbText
  0
TEXT
  5
15F
330
1F
100
AcDbEntity
  8
0
 62
     7
100
AcDbText
 10
4.297776405259928
 20
15.56
 30
0.0
 40
4.0
  1
0.8
 41
0.8000000000000002
  7
FDASTYLE0
 72
     5
 11
13.89777640525993
 21
15.56
 31
0.0
100
AcDbText
  0
TEXT
  5
160
330
1F
100
AcDbEntity
  8
0
 62
     7
100
AcDbText
 10
47.90000359475577
 20
-10.33999999999999
 30
0.0
 40
4.0
  1
13.4
 50
90.0
 41
0.7999999999999998
  7
FDASTYLE0
 72
     5
 11
47.90000359475577
 21
2.460000000000004
 31
0.0
100
AcDbText
  0
TEXT
  5
161
330
1F
100
AcDbEntity
  8
0
 62
     7
100
AcDbText
 10
-47.90000359474007
 20
-13.39999999999995
 30
0.0
 40
4.0
  1
φ21
 50
90.0
 41
0.7499999999999996
  7
FDASTYLE0
 72
     5
 11
-47.90000359474007
 21
-3.799999999999951
 31
0.0
100
AcDbText
  0
TEXT
  5
162
330
1F
100
AcDbEntity
  8
0
 62
     7
100
AcDbText
 10
-50.50000359474007
 20
-2.799999999999951
 30
0.0
 40
2.6
  1
±0.２
 50
90.0
 41
0.7272727272727272
  7
FDASTYLE0
 72
     5
 11
-50.50000359474007
 21
5.520000000000049
 31
0.0
100
AcDbText
  0
TEXT
  5
163
330
1F
100
AcDbEntity
  8
0
 62
     7
100
AcDbText
 10
-80.71518823649586
 20
-27.43999999999999
 30
0.0
 40
4.0
  1
ＤＥＰＴＨ　1.8ＭＡＸ
 41
0.6956521739130437
  7
FDASTYLE0
 72
     5
 11
-42.31518823649586
 21
-27.43999999999999
 31
0.0
100
AcDbText
  0
INSERT
  5
164
330
1F
100
AcDbEntity
  8
0
  6
CONTINUOUS
100
AcDbBlockReference
  2
DA_IMAGEDIMGROUP_1
 10
0.0
 20
0.0
 30
0.0
  0
INSERT
  5
165
330
1F
100
AcDbEntity
  8
0
  6
CONTINUOUS
100
AcDbBlockReference
  2
DC_GROUP_1
 10
0.0
 20
0.0
 30
0.0
  0
INSERT
  5
166
330
1F
100
AcDbEntity
  8
0
  6
CONTINUOUS
100
AcDbBlockReference
  2
DA_IMAGEDIMGROUP_2
 10
0.0
 20
0.0
 30
0.0
  0
VIEWPORT
  5
4E
330
1B
100
AcDbEntity
 67
     1
  8
0
100
AcDbViewport
 10
0.0
 20
0.5000000000000071
 30
0.0
 40
515.4000215685364
 41
167.64
 68
     1
 69
     1
1001
ACAD
1000
MVIEW
1002
{
1070
    16
1010
0.0
1020
0.0
1030
0.0
1010
0.0
1020
0.0
1030
1.0
1040
0.0
1040
167.64
1040
0.0
1040
0.5000000000000071
1040
50.0
1040
0.0
1040
0.0
1070
     0
1070
   100
1070
     0
1070
     1
1070
     0
1070
     0
1070
     0
1070
     0
1040
0.0
1040
0.0
1040
0.0
1040
0.5
1040
0.5
1040
0.0
1040
0.0
1070
     0
1002
{
1002
}
1002
}
  0
ENDSEC
  0
SECTION
  2
OBJECTS
  0
DICTIONARY
  5
C
330
0
100
AcDbDictionary
  3
ACAD_GROUP
350
D
  3
ACAD_LAYOUT
350
1A
  3
ACAD_MLINESTYLE
350
17
  3
ACAD_PLOTSETTINGS
350
19
  3
ACDBHEADERROUNDTRIPXREC
350
167
  0
DICTIONARY
  5
D
102
{ACAD_REACTORS
330
C
102
}
330
C
100
AcDbDictionary
  0
DICTIONARY
  5
1A
102
{ACAD_REACTORS
330
C
102
}
330
C
100
AcDbDictionary
  0
DICTIONARY
  5
17
102
{ACAD_REACTORS
330
C
102
}
330
C
100
AcDbDictionary
  3
STANDARD
350
18
  0
DICTIONARY
  5
19
102
{ACAD_REACTORS
330
C
102
}
330
C
100
AcDbDictionary
  0
DICTIONARY
  5
167
102
{ACAD_REACTORS
330
C
102
}
330
C
100
AcDbDictionary
  3
CEPSNTYPE
350
170
  3
DIMSTYLEDATA
350
186
  3
FINGERPRINTGUID
350
171
  3
HYPERLINKBASE
350
16A
  3
INSUNITS
350
16F
  3
LAYOUTDICT
350
16C
  3
LWETCUNION
350
16E
  3
PLOTSETDICT
350
16D
  3
PSVPSCALE
350
173
  3
PUCSBASE
350
176
  3
PUCSORGBACK
350
17C
  3
PUCSORGBOTTOM
350
178
  3
PUCSORGFRONT
350
17B
  3
PUCSORGLEFT
350
179
  3
PUCSORGRIGHT
350
17A
  3
PUCSORGTOP
350
177
  3
PUCSORTHOREF
350
174
  3
PUCSORTHOVIEW
350
175
  3
STYLESHEET
350
16B
  3
TSTACKALIGN
350
168
  3
TSTACKSIZE
350
169
  3
UCSBASE
350
17F
  3
UCSORGBACK
350
185
  3
UCSORGBOTTOM
350
181
  3
UCSORGFRONT
350
184
  3
UCSORGLEFT
350
182
  3
UCSORGRIGHT
350
183
  3
UCSORGTOP
350
180
  3
UCSORTHOREF
350
17D
  3
UCSORTHOVIEW
350
17E
  3
VERSIONGUID
350
172
  0
MLINESTYLE
  5
18
102
{ACAD_REACTORS
330
17
102
}
330
17
100
AcDbMlineStyle
  2
Standard
 70
     0
  3

 62
   256
 51
90.0
 52
90.0
 71
     2
 49
0.5
 62
   256
  6
BYLAYER
 49
-0.5
 62
   256
  6
BYLAYER
  0
XRECORD
  5
170
102
{ACAD_REACTORS
330
167
102
}
330
167
100
AcDbXrecord
 90
        0
  0
XRECORD
  5
186
102
{ACAD_REACTORS
330
167
102
}
330
167
100
AcDbXrecord
1000
DSTYLE
1002
{
1070
   171
 70
     2
1070
   143
 40
25.4
1070
   274
 70
     2
1070
   141
 40
0.09
1070
   271
 70
     4
1070
    43
 40
0.38
1070
    44
 40
0.18
1070
   278
 70
    46
1070
    42
 40
0.0625
1070
   147
 40
0.09
1070
    77
 70
     3
1070
   272
 70
     4
1070
    73
 70
     1
1070
   172
 70
     0
1070
    74
 70
     1
1070
   283
 70
     1
1070
   340
340
11
1070
   140
 40
0.18
1070
   284
 70
     0
1070
    78
 70
     0
1002
}
  0
XRECORD
  5
171
102
{ACAD_REACTORS
330
167
102
}
330
167
100
AcDbXrecord
  1
{643294CD-692F-4E07-8257-61FC6F67DFFF}
  0
XRECORD
  5
16A
102
{ACAD_REACTORS
330
167
102
}
330
167
100
AcDbXrecord
  1

  0
XRECORD
  5
16F
102
{ACAD_REACTORS
330
167
102
}
330
167
100
AcDbXrecord
 90
        4
  0
XRECORD
  5
16C
102
{ACAD_REACTORS
330
167
102
}
330
167
100
AcDbXrecord
340
1A
  0
XRECORD
  5
16E
102
{ACAD_REACTORS
330
167
102
}
330
167
100
AcDbXrecord
 90
    10781
  0
XRECORD
  5
16D
102
{ACAD_REACTORS
330
167
102
}
330
167
100
AcDbXrecord
340
19
  0
XRECORD
  5
173
102
{ACAD_REACTORS
330
167
102
}
330
167
100
AcDbXrecord
 40
0.0
  0
XRECORD
  5
176
102
{ACAD_REACTORS
330
167
102
}
330
167
100
AcDbXrecord
340
0
  0
XRECORD
  5
17C
102
{ACAD_REACTORS
330
167
102
}
330
167
100
AcDbXrecord
 10
0.0
 20
0.0
 30
0.0
  0
XRECORD
  5
178
102
{ACAD_REACTORS
330
167
102
}
330
167
100
AcDbXrecord
 10
0.0
 20
0.0
 30
0.0
  0
XRECORD
  5
17B
102
{ACAD_REACTORS
330
167
102
}
330
167
100
AcDbXrecord
 10
0.0
 20
0.0
 30
0.0
  0
XRECORD
  5
179
102
{ACAD_REACTORS
330
167
102
}
330
167
100
AcDbXrecord
 10
0.0
 20
0.0
 30
0.0
  0
XRECORD
  5
17A
102
{ACAD_REACTORS
330
167
102
}
330
167
100
AcDbXrecord
 10
0.0
 20
0.0
 30
0.0
  0
XRECORD
  5
177
102
{ACAD_REACTORS
330
167
102
}
330
167
100
AcDbXrecord
 10
0.0
 20
0.0
 30
0.0
  0
XRECORD
  5
174
102
{ACAD_REACTORS
330
167
102
}
330
167
100
AcDbXrecord
340
0
  0
XRECORD
  5
175
102
{ACAD_REACTORS
330
167
102
}
330
167
100
AcDbXrecord
 70
     0
  0
XRECORD
  5
16B
102
{ACAD_REACTORS
330
167
102
}
330
167
100
AcDbXrecord
  1

  0
XRECORD
  5
168
102
{ACAD_REACTORS
330
167
102
}
330
167
100
AcDbXrecord
 90
        1
  0
XRECORD
  5
169
102
{ACAD_REACTORS
330
167
102
}
330
167
100
AcDbXrecord
 90
       70
  0
XRECORD
  5
17F
102
{ACAD_REACTORS
330
167
102
}
330
167
100
AcDbXrecord
340
0
  0
XRECORD
  5
185
102
{ACAD_REACTORS
330
167
102
}
330
167
100
AcDbXrecord
 10
0.0
 20
0.0
 30
0.0
  0
XRECORD
  5
181
102
{ACAD_REACTORS
330
167
102
}
330
167
100
AcDbXrecord
 10
0.0
 20
0.0
 30
0.0
  0
XRECORD
  5
184
102
{ACAD_REACTORS
330
167
102
}
330
167
100
AcDbXrecord
 10
0.0
 20
0.0
 30
0.0
  0
XRECORD
  5
182
102
{ACAD_REACTORS
330
167
102
}
330
167
100
AcDbXrecord
 10
0.0
 20
0.0
 30
0.0
  0
XRECORD
  5
183
102
{ACAD_REACTORS
330
167
102
}
330
167
100
AcDbXrecord
 10
0.0
 20
0.0
 30
0.0
  0
XRECORD
  5
180
102
{ACAD_REACTORS
330
167
102
}
330
167
100
AcDbXrecord
 10
0.0
 20
0.0
 30
0.0
  0
XRECORD
  5
17D
102
{ACAD_REACTORS
330
167
102
}
330
167
100
AcDbXrecord
340
0
  0
XRECORD
  5
17E
102
{ACAD_REACTORS
330
167
102
}
330
167
100
AcDbXrecord
 70
     0
  0
XRECORD
  5
172
102
{ACAD_REACTORS
330
167
102
}
330
167
100
AcDbXrecord
  1
{FAEB1C32-E019-11D5-929B-00C0DF256EC4}
  0
ENDSEC
  0
EOF
