  0
SECTION
  2
HEADER
  9
$ACADVER
  1
AC1014
  9
$ACADMAINTVER
 70
     9
  9
$DWGCODEPAGE
  3
ANSI_932
  9
$INSBASE
 10
0.0
 20
0.0
 30
0.0
  9
$EXTMIN
 10
-264.0000182516058
 20
-87.88000000065557
 30
0.0
  9
$EXTMAX
 10
264.0000182516058
 20
88.76000000065554
 30
0.0
  9
$LIMMIN
 10
-148.5
 20
-105.0
  9
$LIMMAX
 10
148.5
 20
105.0
  9
$ORTHOMODE
 70
     0
  9
$REGENMODE
 70
     1
  9
$FILLMODE
 70
     1
  9
$QTEXTMODE
 70
     0
  9
$MIRRTEXT
 70
     1
  9
$DRAGMODE
 70
     2
  9
$LTSCALE
 40
1.0
  9
$OSMODE
 70
    37
  9
$ATTMODE
 70
     1
  9
$TEXTSIZE
 40
0.2
  9
$TRACEWID
 40
0.05
  9
$TEXTSTYLE
  7
STANDARD
  9
$CLAYER
  8
0
  9
$CELTYPE
  6
BYLAYER
  9
$CECOLOR
 62
   256
  9
$CELTSCALE
 40
1.0
  9
$DELOBJ
 70
     1
  9
$DISPSILH
 70
     0
  9
$DIMSCALE
 40
1.0
  9
$DIMASZ
 40
2.5
  9
$DIMEXO
 40
0.0625
  9
$DIMDLI
 40
0.38
  9
$DIMRND
 40
0.0
  9
$DIMDLE
 40
0.0
  9
$DIMEXE
 40
0.18
  9
$DIMTP
 40
0.0
  9
$DIMTM
 40
0.0
  9
$DIMTXT
 40
0.18
  9
$DIMCEN
 40
0.09
  9
$DIMTSZ
 40
0.0
  9
$DIMTOL
 70
     0
  9
$DIMLIM
 70
     0
  9
$DIMTIH
 70
     1
  9
$DIMTOH
 70
     1
  9
$DIMSE1
 70
     0
  9
$DIMSE2
 70
     0
  9
$DIMTAD
 70
     3
  9
$DIMZIN
 70
     0
  9
$DIMBLK
  1

  9
$DIMASO
 70
     1
  9
$DIMSHO
 70
     1
  9
$DIMPOST
  1

  9
$DIMAPOST
  1

  9
$DIMALT
 70
     0
  9
$DIMALTD
 70
     2
  9
$DIMALTF
 40
25.4
  9
$DIMLFAC
 40
1.0
  9
$DIMTOFL
 70
     0
  9
$DIMTVP
 40
0.0
  9
$DIMTIX
 70
     0
  9
$DIMSOXD
 70
     0
  9
$DIMSAH
 70
     0
  9
$DIMBLK1
  1

  9
$DIMBLK2
  1

  9
$DIMSTYLE
  2
STANDARD
  9
$DIMCLRD
 70
     0
  9
$DIMCLRE
 70
     0
  9
$DIMCLRT
 70
     0
  9
$DIMTFAC
 40
1.0
  9
$DIMGAP
 40
0.09
  9
$DIMJUST
 70
     0
  9
$DIMSD1
 70
     0
  9
$DIMSD2
 70
     0
  9
$DIMTOLJ
 70
     1
  9
$DIMTZIN
 70
     0
  9
$DIMALTZ
 70
     0
  9
$DIMALTTZ
 70
     0
  9
$DIMFIT
 70
     3
  9
$DIMUPT
 70
     0
  9
$DIMUNIT
 70
     2
  9
$DIMDEC
 70
     4
  9
$DIMTDEC
 70
     4
  9
$DIMALTU
 70
     2
  9
$DIMALTTD
 70
     2
  9
$DIMTXSTY
  7
STANDARD
  9
$DIMAUNIT
 70
     0
  9
$LUNITS
 70
     2
  9
$LUPREC
 70
     4
  9
$SKETCHINC
 40
0.1
  9
$FILLETRAD
 40
0.5
  9
$AUNITS
 70
     0
  9
$AUPREC
 70
     0
  9
$MENU
  1
.
  9
$ELEVATION
 40
0.0
  9
$PELEVATION
 40
0.0
  9
$THICKNESS
 40
0.0
  9
$LIMCHECK
 70
     0
  9
$CHAMFERA
 40
0.5
  9
$CHAMFERB
 40
0.5
  9
$CHAMFERC
 40
1.0
  9
$CHAMFERD
 40
0.0
  9
$SKPOLY
 70
     0
  9
$TDCREATE
 40
2456274.483215012
  9
$TDUPDATE
 40
2456274.483215023
  9
$TDINDWG
 40
0.0000000116
  9
$TDUSRTIMER
 40
0.0000000116
  9
$USRTIMER
 70
     1
  9
$ANGBASE
 50
0.0
  9
$ANGDIR
 70
     0
  9
$PDMODE
 70
     0
  9
$PDSIZE
 40
1.0
  9
$PLINEWID
 40
0.0
  9
$COORDS
 70
     1
  9
$SPLFRAME
 70
     0
  9
$SPLINETYPE
 70
     6
  9
$SPLINESEGS
 70
     8
  9
$ATTDIA
 70
     0
  9
$ATTREQ
 70
     1
  9
$HANDLING
 70
     1
  9
$HANDSEED
  5
176
  9
$SURFTAB1
 70
     6
  9
$SURFTAB2
 70
     6
  9
$SURFTYPE
 70
     6
  9
$SURFU
 70
     6
  9
$SURFV
 70
     6
  9
$UCSNAME
  2

  9
$UCSORG
 10
0.0
 20
0.0
 30
0.0
  9
$UCSXDIR
 10
1.0
 20
0.0
 30
0.0
  9
$UCSYDIR
 10
0.0
 20
1.0
 30
0.0
  9
$PUCSNAME
  2

  9
$PUCSORG
 10
0.0
 20
0.0
 30
0.0
  9
$PUCSXDIR
 10
1.0
 20
0.0
 30
0.0
  9
$PUCSYDIR
 10
0.0
 20
1.0
 30
0.0
  9
$USERI1
 70
     0
  9
$USERI2
 70
     0
  9
$USERI3
 70
     0
  9
$USERI4
 70
     0
  9
$USERI5
 70
     0
  9
$USERR1
 40
0.0
  9
$USERR2
 40
0.0
  9
$USERR3
 40
0.0
  9
$USERR4
 40
0.0
  9
$USERR5
 40
0.0
  9
$WORLDVIEW
 70
     1
  9
$SHADEDGE
 70
     3
  9
$SHADEDIF
 70
    70
  9
$TILEMODE
 70
     1
  9
$MAXACTVP
 70
    64
  9
$PINSBASE
 10
0.0
 20
0.0
 30
0.0
  9
$PLIMCHECK
 70
     0
  9
$PEXTMIN
 10
1.000000000000000E+20
 20
1.000000000000000E+20
 30
1.000000000000000E+20
  9
$PEXTMAX
 10
-1.000000000000000E+20
 20
-1.000000000000000E+20
 30
-1.000000000000000E+20
  9
$PLIMMIN
 10
0.0
 20
0.0
  9
$PLIMMAX
 10
12.0
 20
9.0
  9
$UNITMODE
 70
     0
  9
$VISRETAIN
 70
     0
  9
$PLINEGEN
 70
     1
  9
$PSLTSCALE
 70
     0
  9
$TREEDEPTH
 70
  3020
  9
$PICKSTYLE
 70
     1
  9
$CMLSTYLE
  2
STANDARD
  9
$CMLJUST
 70
     0
  9
$CMLSCALE
 40
1.0
  9
$PROXYGRAPHICS
 70
     0
  9
$MEASUREMENT
 70
     1
  0
ENDSEC
  0
SECTION
  2
CLASSES
  0
CLASS
  1
ACDBDICTIONARYWDFLT
  2
AcDbDictionaryWithDefault
  3
ObjectDBX Classes
 90
        0
280
     0
281
     0
  0
CLASS
  1
XRECORD
  2
AcDbXrecord
  3
AutoCAD 2000
 90
        0
280
     0
281
     0
  0
CLASS
  1
LWPOLYLINE
  2
AcDbPolyline
  3
AutoCAD 2000
 90
        0
280
     0
281
     1
  0
CLASS
  1
HATCH
  2
AcDbHatch
  3
AutoCAD 2000
 90
        0
280
     0
281
     1
  0
CLASS
  1
ACDBPLACEHOLDER
  2
AcDbPlaceHolder
  3
ObjectDBX Classes
 90
        0
280
     0
281
     0
  0
CLASS
  1
LAYOUT
  2
AcDbLayout
  3
ObjectDBX Classes
 90
        0
280
     0
281
     0
  0
ENDSEC
  0
SECTION
  2
TABLES
  0
TABLE
  2
VPORT
  5
8
330
0
100
AcDbSymbolTable
 70
     1
  0
VPORT
  5
29
330
8
100
AcDbSymbolTableRecord
100
AcDbViewportTableRecord
  2
*ACTIVE
 70
     0
 10
0.0
 20
0.0
 11
1.0
 21
1.0
 12
0.0
 22
0.0
 13
0.0
 23
0.0
 14
0.5
 24
0.5
 15
0.5
 25
0.5
 16
0.0
 26
0.0
 36
1.0
 17
-0.0000000000000036
 27
0.4399999999999764
 37
0.0
 40
60.05760000044578
 41
2.989130641413567
 42
50.0
 43
0.0
 44
0.0
 50
0.0
 51
0.0
 71
     0
 72
  1000
 73
     1
 74
     1
 75
     0
 76
     0
 77
     0
 78
     0
  0
ENDTAB
  0
TABLE
  2
LTYPE
  5
5
330
0
100
AcDbSymbolTable
 70
    28
  0
LTYPE
  5
14
330
5
100
AcDbSymbolTableRecord
100
AcDbLinetypeTableRecord
  2
BYBLOCK
 70
     0
  3

 72
    65
 73
     0
 40
0.0
  0
LTYPE
  5
15
330
5
100
AcDbSymbolTableRecord
100
AcDbLinetypeTableRecord
  2
BYLAYER
 70
     0
  3

 72
    65
 73
     0
 40
0.0
  0
LTYPE
  5
16
330
5
100
AcDbSymbolTableRecord
100
AcDbLinetypeTableRecord
  2
CONTINUOUS
 70
     0
  3
Solid line
 72
    65
 73
     0
 40
0.0
  0
LTYPE
  5
2B
330
5
100
AcDbSymbolTableRecord
100
AcDbLinetypeTableRecord
  2
HIDDENX2
 70
     0
  3
CADPAC LINETYPE
 72
    65
 73
     2
 40
4.320987654320959
 49
3.240740740740719
 74
     0
 49
-1.08024691358024
 74
     0
  0
LTYPE
  5
2C
330
5
100
AcDbSymbolTableRecord
100
AcDbLinetypeTableRecord
  2
HIDDEN
 70
     0
  3
CADPAC LINETYPE
 72
    65
 73
     2
 40
3.240740740740719
 49
2.160493827160479
 74
     0
 49
-1.08024691358024
 74
     0
  0
LTYPE
  5
2D
330
5
100
AcDbSymbolTableRecord
100
AcDbLinetypeTableRecord
  2
HIDDEN2
 70
     0
  3
CADPAC LINETYPE
 72
    65
 73
     2
 40
2.700617283950599
 49
1.62037037037036
 74
     0
 49
-1.08024691358024
 74
     0
  0
LTYPE
  5
2E
330
5
100
AcDbSymbolTableRecord
100
AcDbLinetypeTableRecord
  2
DASHED
 70
     0
  3
CADPAC LINETYPE
 72
    65
 73
     2
 40
3.024691358024683
 49
2.160493827160479
 74
     0
 49
-0.8641975308642032
 74
     0
  0
LTYPE
  5
2F
330
5
100
AcDbSymbolTableRecord
100
AcDbLinetypeTableRecord
  2
DASHED2
 70
     0
  3
CADPAC LINETYPE
 72
    65
 73
     2
 40
1.944444444444457
 49
1.296296296296305
 74
     0
 49
-0.6481481481481524
 74
     0
  0
LTYPE
  5
30
330
5
100
AcDbSymbolTableRecord
100
AcDbLinetypeTableRecord
  2
DASHEDX2
 70
     0
  3
CADPAC LINETYPE
 72
    65
 73
     2
 40
5.185185185185219
 49
4.320987654321016
 74
     0
 49
-0.8641975308642032
 74
     0
  0
LTYPE
  5
31
330
5
100
AcDbSymbolTableRecord
100
AcDbLinetypeTableRecord
  2
DOTX2
 70
     0
  3
CADPAC LINETYPE
 72
    65
 73
     2
 40
1.890432098765444
 49
0.0
 74
     0
 49
-1.890432098765444
 74
     0
  0
LTYPE
  5
32
330
5
100
AcDbSymbolTableRecord
100
AcDbLinetypeTableRecord
  2
DOT
 70
     0
  3
CADPAC LINETYPE
 72
    65
 73
     2
 40
1.512345679012356
 49
0.0
 74
     0
 49
-1.512345679012356
 74
     0
  0
LTYPE
  5
33
330
5
100
AcDbSymbolTableRecord
100
AcDbLinetypeTableRecord
  2
DOT2
 70
     0
  3
CADPAC LINETYPE
 72
    65
 73
     2
 40
1.134259259259267
 49
0.0
 74
     0
 49
-1.134259259259267
 74
     0
  0
LTYPE
  5
34
330
5
100
AcDbSymbolTableRecord
100
AcDbLinetypeTableRecord
  2
CENTERX2
 70
     0
  3
CADPAC LINETYPE
 72
    65
 73
     4
 40
6.481481481481438
 49
2.700617283950599
 74
     0
 49
-1.3503086419753
 74
     0
 49
1.08024691358024
 74
     0
 49
-1.3503086419753
 74
     0
  0
LTYPE
  5
35
330
5
100
AcDbSymbolTableRecord
100
AcDbLinetypeTableRecord
  2
CENTER
 70
     0
  3
CADPAC LINETYPE
 72
    65
 73
     4
 40
4.969135802469102
 49
2.160493827160479
 74
     0
 49
-1.08024691358024
 74
     0
 49
0.6481481481481438
 74
     0
 49
-1.08024691358024
 74
     0
  0
LTYPE
  5
36
330
5
100
AcDbSymbolTableRecord
100
AcDbLinetypeTableRecord
  2
CENTER2
 70
     0
  3
CADPAC LINETYPE
 72
    65
 73
     4
 40
3.456790123456767
 49
1.62037037037036
 74
     0
 49
-0.8101851851851798
 74
     0
 49
0.216049382716048
 74
     0
 49
-0.8101851851851798
 74
     0
  0
LTYPE
  5
37
330
5
100
AcDbSymbolTableRecord
100
AcDbLinetypeTableRecord
  2
DASHDOTX2
 70
     0
  3
CADPAC LINETYPE
 72
    65
 73
     4
 40
10.37037037037032
 49
5.18518518518519
 74
     0
 49
-1.728395061728378
 74
     0
 49
1.728395061728378
 74
     0
 49
-1.728395061728378
 74
     0
  0
LTYPE
  5
38
330
5
100
AcDbSymbolTableRecord
100
AcDbLinetypeTableRecord
  2
DASHDOT
 70
     0
  3
CADPAC LINETYPE
 72
    65
 73
     4
 40
5.185185185185219
 49
2.592592592592609
 74
     0
 49
-0.8641975308642032
 74
     0
 49
0.8641975308642032
 74
     0
 49
-0.8641975308642032
 74
     0
  0
LTYPE
  5
39
330
5
100
AcDbSymbolTableRecord
100
AcDbLinetypeTableRecord
  2
DASHDOT2
 70
     0
  3
CADPAC LINETYPE
 72
    65
 73
     4
 40
3.327160493827182
 49
1.944444444444457
 74
     0
 49
-0.6481481481481524
 74
     0
 49
0.0864197530864203
 74
     0
 49
-0.6481481481481524
 74
     0
  0
LTYPE
  5
3A
330
5
100
AcDbSymbolTableRecord
100
AcDbLinetypeTableRecord
  2
DIVIDEX2
 70
     0
  3
CADPAC LINETYPE
 72
    65
 73
     6
 40
13.82716049382708
 49
5.18518518518519
 74
     0
 49
-1.728395061728378
 74
     0
 49
1.728395061728378
 74
     0
 49
-1.728395061728378
 74
     0
 49
1.728395061728378
 74
     0
 49
-1.728395061728378
 74
     0
  0
LTYPE
  5
3B
330
5
100
AcDbSymbolTableRecord
100
AcDbLinetypeTableRecord
  2
DIVIDE
 70
     0
  3
CADPAC LINETYPE
 72
    65
 73
     6
 40
6.913580246913625
 49
2.592592592592609
 74
     0
 49
-0.8641975308642032
 74
     0
 49
0.8641975308642032
 74
     0
 49
-0.8641975308642032
 74
     0
 49
0.8641975308642032
 74
     0
 49
-0.8641975308642032
 74
     0
  0
LTYPE
  5
3C
330
5
100
AcDbSymbolTableRecord
100
AcDbLinetypeTableRecord
  2
DIVIDE2
 70
     0
  3
CADPAC LINETYPE
 72
    65
 73
     6
 40
5.185185185185219
 49
1.944444444444457
 74
     0
 49
-0.6481481481481524
 74
     0
 49
0.6481481481481524
 74
     0
 49
-0.6481481481481524
 74
     0
 49
0.6481481481481524
 74
     0
 49
-0.6481481481481524
 74
     0
  0
LTYPE
  5
3D
330
5
100
AcDbSymbolTableRecord
100
AcDbLinetypeTableRecord
  2
BORDERX2
 70
     0
  3
CADPAC LINETYPE
 72
    65
 73
     6
 40
9.452160493827098
 49
2.700617283950599
 74
     0
 49
-1.3503086419753
 74
     0
 49
2.700617283950599
 74
     0
 49
-1.3503086419753
 74
     0
 49
0.0
 74
     0
 49
-1.3503086419753
 74
     0
  0
LTYPE
  5
3E
330
5
100
AcDbSymbolTableRecord
100
AcDbLinetypeTableRecord
  2
BORDER
 70
     0
  3
CADPAC LINETYPE
 72
    65
 73
     6
 40
7.561728395061678
 49
2.160493827160479
 74
     0
 49
-1.08024691358024
 74
     0
 49
2.160493827160479
 74
     0
 49
-1.08024691358024
 74
     0
 49
0.0
 74
     0
 49
-1.08024691358024
 74
     0
  0
LTYPE
  5
3F
330
5
100
AcDbSymbolTableRecord
100
AcDbLinetypeTableRecord
  2
BORDER2
 70
     0
  3
CADPAC LINETYPE
 72
    65
 73
     6
 40
5.617283950617221
 49
1.728395061728378
 74
     0
 49
-1.080246913580226
 74
     0
 49
0.6481481481481524
 74
     0
 49
-1.080246913580226
 74
     0
 49
0.0
 74
     0
 49
-1.08024691358024
 74
     0
  0
LTYPE
  5
40
330
5
100
AcDbSymbolTableRecord
100
AcDbLinetypeTableRecord
  2
PHANTOMX2
 70
     0
  3
CADPAC LINETYPE
 72
    65
 73
     6
 40
8.101851851851798
 49
2.700617283950599
 74
     0
 49
-1.08024691358024
 74
     0
 49
1.08024691358024
 74
     0
 49
-1.08024691358024
 74
     0
 49
1.08024691358024
 74
     0
 49
-1.08024691358024
 74
     0
  0
LTYPE
  5
41
330
5
100
AcDbSymbolTableRecord
100
AcDbLinetypeTableRecord
  2
PHANTOM
 70
     0
  3
CADPAC LINETYPE
 72
    65
 73
     6
 40
6.697530864197486
 49
2.160493827160479
 74
     0
 49
-1.08024691358024
 74
     0
 49
0.6481481481481438
 74
     0
 49
-1.08024691358024
 74
     0
 49
0.6481481481481438
 74
     0
 49
-1.08024691358024
 74
     0
  0
LTYPE
  5
42
330
5
100
AcDbSymbolTableRecord
100
AcDbLinetypeTableRecord
  2
PHANTOM2
 70
     0
  3
CADPAC LINETYPE
 72
    65
 73
     6
 40
5.725308641975271
 49
1.62037037037036
 74
     0
 49
-1.08024691358024
 74
     0
 49
0.4320987654320959
 74
     0
 49
-1.08024691358024
 74
     0
 49
0.4320987654320959
 74
     0
 49
-1.08024691358024
 74
     0
  0
LTYPE
  5
43
330
5
100
AcDbSymbolTableRecord
100
AcDbLinetypeTableRecord
  2
ACAD_ISO06W100
 70
     0
  3
CADPAC LINETYPE
 72
    65
 73
     8
 40
11.45061728395055
 49
5.18518518518519
 74
     0
 49
-1.080246913580226
 74
     0
 49
0.6481481481481524
 74
     0
 49
-1.080246913580226
 74
     0
 49
0.6481481481481524
 74
     0
 49
-1.080246913580226
 74
     0
 49
0.6481481481481524
 74
     0
 49
-1.080246913580226
 74
     0
  0
LTYPE
  5
44
330
5
100
AcDbSymbolTableRecord
100
AcDbLinetypeTableRecord
  2
ACAD_ISO13W100
 70
     0
  3
CADPAC LINETYPE
 72
    65
 73
     8
 40
8.641975308641918
 49
2.160493827160479
 74
     0
 49
-1.08024691358024
 74
     0
 49
2.160493827160479
 74
     0
 49
-1.08024691358024
 74
     0
 49
0.0
 74
     0
 49
-1.08024691358024
 74
     0
 49
0.0
 74
     0
 49
-1.08024691358024
 74
     0
  0
LTYPE
  5
45
330
5
100
AcDbSymbolTableRecord
100
AcDbLinetypeTableRecord
  2
ACAD_ISO14W100
 70
     0
  3
CADPAC LINETYPE
 72
    65
 73
     8
 40
6.481481481481438
 49
2.160493827160479
 74
     0
 49
-1.08024691358024
 74
     0
 49
0.0
 74
     0
 49
-1.08024691358024
 74
     0
 49
0.0
 74
     0
 49
-1.08024691358024
 74
     0
 49
0.0
 74
     0
 49
-1.08024691358024
 74
     0
  0
ENDTAB
  0
TABLE
  2
LAYER
  5
2
330
0
100
AcDbSymbolTable
 70
     8
  0
LAYER
  5
10
330
2
100
AcDbSymbolTableRecord
100
AcDbLayerTableRecord
  2
0
 70
     0
 62
     7
  6
CONTINUOUS
  0
LAYER
  5
46
330
2
100
AcDbSymbolTableRecord
100
AcDbLayerTableRecord
  2
LAYER0005
 70
     0
 62
     7
  6
CONTINUOUS
  0
LAYER
  5
47
330
2
100
AcDbSymbolTableRecord
100
AcDbLayerTableRecord
  2
LAYER0007
 70
     0
 62
     7
  6
CONTINUOUS
  0
LAYER
  5
48
330
2
100
AcDbSymbolTableRecord
100
AcDbLayerTableRecord
  2
LAYER0008
 70
     0
 62
     7
  6
CONTINUOUS
  0
LAYER
  5
49
330
2
100
AcDbSymbolTableRecord
100
AcDbLayerTableRecord
  2
LAYER0009
 70
     0
 62
     7
  6
CONTINUOUS
  0
LAYER
  5
4A
330
2
100
AcDbSymbolTableRecord
100
AcDbLayerTableRecord
  2
LAYER0010
 70
     0
 62
     7
  6
CONTINUOUS
  0
LAYER
  5
4B
330
2
100
AcDbSymbolTableRecord
100
AcDbLayerTableRecord
  2
LAYER0012
 70
     0
 62
     7
  6
CONTINUOUS
  0
LAYER
  5
4C
330
2
100
AcDbSymbolTableRecord
100
AcDbLayerTableRecord
  2
LAYER0013
 70
     0
 62
     7
  6
CONTINUOUS
  0
ENDTAB
  0
TABLE
  2
STYLE
  5
3
330
0
100
AcDbSymbolTable
 70
     2
  0
STYLE
  5
11
330
3
100
AcDbSymbolTableRecord
100
AcDbTextStyleTableRecord
  2
STANDARD
 70
     0
 40
0.0
 41
1.0
 50
0.0
 71
     0
 42
0.2
  3
txt
  4

  0
STYLE
  5
5D
330
3
100
AcDbSymbolTableRecord
100
AcDbTextStyleTableRecord
  2
FDASTYLE0
 70
     0
 40
4.0
 41
0.682926829268293
 50
0.0
 71
     0
 42
0.2
  3
txt.shx
  4
bigfont
  0
ENDTAB
  0
TABLE
  2
VIEW
  5
6
330
0
100
AcDbSymbolTable
 70
     0
  0
ENDTAB
  0
TABLE
  2
UCS
  5
7
330
0
100
AcDbSymbolTable
 70
     0
  0
ENDTAB
  0
TABLE
  2
APPID
  5
9
330
0
100
AcDbSymbolTable
 70
     2
  0
APPID
  5
12
330
9
100
AcDbSymbolTableRecord
100
AcDbRegAppTableRecord
  2
ACAD
 70
     0
  0
APPID
  5
2A
330
9
100
AcDbSymbolTableRecord
100
AcDbRegAppTableRecord
  2
DAFUSIONOUT
 70
     0
  0
ENDTAB
  0
TABLE
  2
DIMSTYLE
  5
A
330
0
100
AcDbSymbolTable
 70
     1
  0
DIMSTYLE
105
27
330
A
100
AcDbSymbolTableRecord
100
AcDbDimStyleTableRecord
  2
STANDARD
 70
     0
  3

  4

  5

  6

  7

 40
1.0
 41
0.18
 42
0.0625
 43
0.38
 44
0.18
 45
0.0
 46
0.0
 47
0.0
 48
0.0
140
0.18
141
0.09
142
0.0
143
25.4
144
1.0
145
0.0
146
1.0
147
0.09
 71
     0
 72
     0
 73
     1
 74
     1
 75
     0
 76
     0
 77
     0
 78
     0
170
     0
171
     2
172
     0
173
     0
174
     0
175
     0
176
     0
177
     0
178
     0
270
     2
271
     4
272
     4
273
     2
274
     2
340
11
275
     0
280
     0
281
     0
282
     0
283
     1
284
     0
285
     0
286
     0
287
     3
288
     0
  0
ENDTAB
  0
TABLE
  2
BLOCK_RECORD
  5
1
330
0
100
AcDbSymbolTable
 70
     4
  0
BLOCK_RECORD
  5
1F
330
1
100
AcDbSymbolTableRecord
100
AcDbBlockTableRecord
  2
*MODEL_SPACE
  0
BLOCK_RECORD
  5
1B
330
1
100
AcDbSymbolTableRecord
100
AcDbBlockTableRecord
  2
*PAPER_SPACE
  0
BLOCK_RECORD
  5
4E
330
1
100
AcDbSymbolTableRecord
100
AcDbBlockTableRecord
  2
DC_GROUP_1
  0
BLOCK_RECORD
  5
51
330
1
100
AcDbSymbolTableRecord
100
AcDbBlockTableRecord
  2
DA_IMAGEDIMGROUP_1
  0
BLOCK_RECORD
  5
55
330
1
100
AcDbSymbolTableRecord
100
AcDbBlockTableRecord
  2
_OPEN30
  0
ENDTAB
  0
ENDSEC
  0
SECTION
  2
BLOCKS
  0
BLOCK
  5
20
330
1F
100
AcDbEntity
  8
0
100
AcDbBlockBegin
  2
*MODEL_SPACE
 70
     0
 71
     0
 10
0.0
 20
0.0
 30
0.0
  3
*MODEL_SPACE
  1

  0
ENDBLK
  5
21
330
1F
100
AcDbEntity
  8
0
100
AcDbBlockEnd
  0
BLOCK
  5
1C
330
1B
100
AcDbEntity
 67
     1
  8
0
100
AcDbBlockBegin
  2
*PAPER_SPACE
 70
     0
 71
     0
 10
0.0
 20
0.0
 30
0.0
  3
*PAPER_SPACE
  1

  0
ENDBLK
  5
1D
330
1B
100
AcDbEntity
 67
     1
  8
0
100
AcDbBlockEnd
  0
BLOCK
  5
4F
330
4E
100
AcDbEntity
  8
0
100
AcDbBlockBegin
  2
DC_GROUP_1
 70
     0
 71
     0
 10
0.0
 20
0.0
 30
0.0
  3
DC_GROUP_1
  1

  0
LINE
  5
54
330
4E
100
AcDbEntity
  8
0
  6
CONTINUOUS
 62
     9
100
AcDbLine
 10
70.94333919642719
 20
-8.029540922103987
 30
0.0
 11
63.0000060838686
 21
-24.00000000021853
 31
0.0
  0
INSERT
  5
5B
330
4E
100
AcDbEntity
  8
0
 62
     9
100
AcDbBlockReference
  2
_OPEN30
 10
70.94333919642719
 20
-8.029540922103987
 30
0.0
 41
3.000002787824364
 42
2.999989273978464
 50
63.55532139138973
  0
LINE
  5
5C
330
4E
100
AcDbEntity
  8
0
  6
CONTINUOUS
 62
     9
100
AcDbLine
 10
63.0000060838686
 20
-24.00000000021853
 30
0.0
 11
40.60000608386859
 21
-24.00000000021853
 31
0.0
  0
TEXT
  5
5E
330
4E
100
AcDbEntity
  8
0
 62
     7
100
AcDbText
 10
40.60000608386859
 20
-23.00000000021853
 30
0.0
 40
4.0
  1
（+）ＭＡＲＫ
 41
0.682926829268293
  7
FDASTYLE0
 72
     5
 11
63.0000060838686
 21
-23.00000000021853
 31
0.0
100
AcDbText
  0
ENDBLK
  5
50
330
4E
100
AcDbEntity
  8
0
100
AcDbBlockEnd
  0
BLOCK
  5
52
330
51
100
AcDbEntity
  8
0
100
AcDbBlockBegin
  2
DA_IMAGEDIMGROUP_1
 70
     0
 71
     0
 10
0.0
 20
0.0
 30
0.0
  3
DA_IMAGEDIMGROUP_1
  1

  0
LINE
  5
5F
330
51
100
AcDbEntity
  8
0
  6
CONTINUOUS
 62
     9
100
AcDbLine
 10
-56.00000608386858
 20
-3.999999999781515
 30
0.0
 11
-59.00000608386857
 21
-3.999999999781515
 31
0.0
  0
LINE
  5
60
330
51
100
AcDbEntity
  8
0
  6
CONTINUOUS
 62
     9
100
AcDbLine
 10
-65.0000060838685
 20
11.58845726833833
 30
0.0
 11
-69.63720026141559
 21
3.556601348264322
 31
0.0
  0
ARC
  5
61
330
51
100
AcDbEntity
  8
0
  6
CONTINUOUS
 62
     9
100
AcDbCircle
 10
-74.0000060838686
 20
-3.999999999781515
 30
0.0
 40
17.00000000000001
100
AcDbArc
 50
0.0
 51
59.99999999999962
  0
INSERT
  5
62
330
51
100
AcDbEntity
  8
0
 62
     9
100
AcDbBlockReference
  2
_OPEN30
 10
-57.00000608386858
 20
-3.999999999781515
 30
0.0
 41
3.000002787824364
 42
2.999989273978464
 50
275.0555131294875
  0
INSERT
  5
63
330
51
100
AcDbEntity
  8
0
 62
     9
100
AcDbBlockReference
  2
_OPEN30
 10
-65.5000060838685
 20
10.7224318645539
 30
0.0
 41
3.000002787824364
 42
2.999989273978464
 50
144.9444868705121
  0
TEXT
  5
64
330
51
100
AcDbEntity
  8
0
 62
     7
100
AcDbText
 10
-62.41154881574865
 20
11.92820323049396
 30
0.0
 40
4.0
  1
6-60°
 50
-60.00000000000019
 41
0.7692307692307692
  7
FDASTYLE0
 72
     5
 11
-54.4115488157487
 21
-1.928203230057083
 31
0.0
100
AcDbText
  0
ENDBLK
  5
53
330
51
100
AcDbEntity
  8
0
100
AcDbBlockEnd
  0
BLOCK
  5
56
330
55
100
AcDbEntity
  8
0
100
AcDbBlockBegin
  2
_OPEN30
 70
     0
 71
     0
 10
0.0
 20
0.0
 30
0.0
  3
_OPEN30
  1

  0
LINE
  5
58
330
55
100
AcDbEntity
  8
0
  6
BYBLOCK
 62
     0
100
AcDbLine
 10
-1.0
 20
0.267949
 30
0.0
 11
0.0
 21
0.0
 31
0.0
  0
LINE
  5
59
330
55
100
AcDbEntity
  8
0
  6
BYBLOCK
 62
     0
100
AcDbLine
 10
0.0
 20
0.0
 30
0.0
 11
-1.0
 21
-0.267949
 31
0.0
  0
LINE
  5
5A
330
55
100
AcDbEntity
  8
0
  6
BYBLOCK
 62
     0
100
AcDbLine
 10
0.0
 20
0.0
 30
0.0
 11
-1.0
 21
0.0
 31
0.0
  0
ENDBLK
  5
57
330
55
100
AcDbEntity
  8
0
100
AcDbBlockEnd
  0
ENDSEC
  0
SECTION
  2
ENTITIES
  0
LINE
  5
65
330
1F
100
AcDbEntity
  8
0
  6
CONTINUOUS
 62
     3
100
AcDbLine
 10
73.9000060838686
 20
3.089665035971358
 30
0.0
 11
73.9000060838686
 21
3.589665035971542
 31
0.0
  0
LINE
  5
66
330
1F
100
AcDbEntity
  8
0
  6
CONTINUOUS
 62
     3
100
AcDbLine
 10
73.9000060838686
 20
3.589665035971542
 30
0.0
 11
76.10000608386859
 21
3.589665035971542
 31
0.0
  0
LINE
  5
67
330
1F
100
AcDbEntity
  8
0
  6
CONTINUOUS
 62
     3
100
AcDbLine
 10
73.9000060838686
 20
3.089665035971358
 30
0.0
 11
76.10000608386859
 21
3.089665035971358
 31
0.0
  0
LINE
  5
68
330
1F
100
AcDbEntity
  8
0
  6
CONTINUOUS
 62
     3
100
AcDbLine
 10
76.10000608386859
 20
3.089665035971358
 30
0.0
 11
76.10000608386859
 21
3.589665035971542
 31
0.0
  0
LINE
  5
69
330
1F
100
AcDbEntity
  8
0
  6
CONTINUOUS
 62
     3
100
AcDbLine
 10
76.10000608386859
 20
-9.910334964173977
 30
0.0
 11
76.10000608386859
 21
-10.41033496417415
 31
0.0
  0
LINE
  5
6A
330
1F
100
AcDbEntity
  8
0
  6
CONTINUOUS
 62
     3
100
AcDbLine
 10
73.9000060838686
 20
-9.910334964173977
 30
0.0
 11
76.10000608386859
 21
-9.910334964173977
 31
0.0
  0
LINE
  5
6B
330
1F
100
AcDbEntity
  8
0
  6
CONTINUOUS
 62
     3
100
AcDbLine
 10
73.9000060838686
 20
-10.41033496417415
 30
0.0
 11
76.10000608386859
 21
-10.41033496417415
 31
0.0
  0
LINE
  5
6C
330
1F
100
AcDbEntity
  8
0
  6
CONTINUOUS
 62
     3
100
AcDbLine
 10
73.9000060838686
 20
-9.910334964173977
 30
0.0
 11
73.9000060838686
 21
-10.41033496417415
 31
0.0
  0
LINE
  5
6D
330
1F
100
AcDbEntity
  8
0
  6
CONTINUOUS
 62
     3
100
AcDbLine
 10
73.75000608386573
 20
3.832592620786279
 30
0.0
 11
73.75000608386573
 21
2.939665035971352
 31
0.0
  0
LINE
  5
6E
330
1F
100
AcDbEntity
  8
0
  6
CONTINUOUS
 62
     3
100
AcDbLine
 10
75.00000608386573
 20
2.939665035971352
 30
0.0
 11
73.75000608386573
 21
2.939665035971352
 31
0.0
  0
ARC
  5
6F
330
1F
100
AcDbEntity
  8
0
  6
CONTINUOUS
 62
     3
100
AcDbCircle
 10
75.00000608386573
 20
-3.410334964106447
 30
0.0
 40
7.35
100
AcDbArc
 50
99.79177432463465
 51
260.2082256753654
  0
ARC
  5
70
330
1F
100
AcDbEntity
  8
0
  6
CONTINUOUS
 62
     3
100
AcDbCircle
 10
73.70000608386572
 20
2.739665035976408
 30
0.0
 40
0.5
100
AcDbArc
 50
180.0
 51
270.0
  0
LINE
  5
71
330
1F
100
AcDbEntity
  8
0
  6
CONTINUOUS
 62
     3
100
AcDbLine
 10
73.70000608386572
 20
2.239665035976408
 30
0.0
 11
76.30000608386571
 21
2.239665035976408
 31
0.0
  0
LINE
  5
72
330
1F
100
AcDbEntity
  8
0
  6
CONTINUOUS
 62
     3
100
AcDbLine
 10
76.2500060838715
 20
3.832592620785285
 30
0.0
 11
76.2500060838715
 21
2.939665035971352
 31
0.0
  0
LINE
  5
73
330
1F
100
AcDbEntity
  8
0
  6
CONTINUOUS
 62
     3
100
AcDbLine
 10
75.00000608386573
 20
2.939665035971352
 30
0.0
 11
76.2500060838715
 21
2.939665035971352
 31
0.0
  0
ARC
  5
74
330
1F
100
AcDbEntity
  8
0
  6
CONTINUOUS
 62
     3
100
AcDbCircle
 10
75.00000608386573
 20
-3.410334964106447
 30
0.0
 40
7.35
100
AcDbArc
 50
279.7917743246803
 51
440.2082256753197
  0
ARC
  5
75
330
1F
100
AcDbEntity
  8
0
  6
CONTINUOUS
 62
     3
100
AcDbCircle
 10
76.30000608386571
 20
2.739665035976408
 30
0.0
 40
0.5
100
AcDbArc
 50
270.0
 51
360.0
  0
LINE
  5
76
330
1F
100
AcDbEntity
  8
0
  6
CONTINUOUS
 62
     3
100
AcDbLine
 10
76.2500060838715
 20
-10.65326254899818
 30
0.0
 11
76.2500060838715
 21
-9.760334964173971
 31
0.0
  0
LINE
  5
77
330
1F
100
AcDbEntity
  8
0
  6
CONTINUOUS
 62
     3
100
AcDbLine
 10
75.0000060838715
 20
-9.760334964173971
 30
0.0
 11
76.2500060838715
 21
-9.760334964173971
 31
0.0
  0
ARC
  5
78
330
1F
100
AcDbEntity
  8
0
  6
CONTINUOUS
 62
     3
100
AcDbCircle
 10
76.30000608386571
 20
-9.560334964170799
 30
0.0
 40
0.5
100
AcDbArc
 50
0.0
 51
90.0
  0
LINE
  5
79
330
1F
100
AcDbEntity
  8
0
  6
CONTINUOUS
 62
     3
100
AcDbLine
 10
73.70000608386572
 20
-9.060334964170799
 30
0.0
 11
76.30000608386571
 21
-9.060334964170799
 31
0.0
  0
LINE
  5
7A
330
1F
100
AcDbEntity
  8
0
  6
CONTINUOUS
 62
     3
100
AcDbLine
 10
73.75000608386573
 20
-10.65326254899917
 30
0.0
 11
73.75000608386573
 21
-9.760334964173971
 31
0.0
  0
LINE
  5
7B
330
1F
100
AcDbEntity
  8
0
  6
CONTINUOUS
 62
     3
100
AcDbLine
 10
75.0000060838715
 20
-9.760334964173971
 30
0.0
 11
73.75000608386573
 21
-9.760334964173971
 31
0.0
  0
ARC
  5
7C
330
1F
100
AcDbEntity
  8
0
  6
CONTINUOUS
 62
     3
100
AcDbCircle
 10
73.70000608386572
 20
-9.560334964170799
 30
0.0
 40
0.5
100
AcDbArc
 50
90.0
 51
180.0
  0
LINE
  5
7D
330
1F
100
AcDbEntity
  8
0
  6
CONTINUOUS
 62
     3
100
AcDbLine
 10
72.72475095525731
 20
-7.160334964100947
 30
0.0
 11
71.75000608386573
 21
-7.160334964100947
 31
0.0
  0
CIRCLE
  5
7E
330
1F
100
AcDbEntity
  8
0
  6
CONTINUOUS
 62
     3
100
AcDbCircle
 10
71.50000608386573
 20
-6.910334964100947
 30
0.0
 40
1.25
  0
LINE
  5
7F
330
1F
100
AcDbEntity
  8
0
  6
CONTINUOUS
 62
     3
100
AcDbLine
 10
71.25000608386573
 20
-7.160334964100947
 30
0.0
 11
70.27526121247412
 21
-7.160334964100947
 31
0.0
  0
LINE
  5
80
330
1F
100
AcDbEntity
  8
0
  6
CONTINUOUS
 62
     3
100
AcDbLine
 10
71.25000608386573
 20
-8.13507983549254
 30
0.0
 11
71.25000608386573
 21
-7.160334964100947
 31
0.0
  0
LINE
  5
81
330
1F
100
AcDbEntity
  8
0
  6
CONTINUOUS
 62
     3
100
AcDbLine
 10
71.25000608386573
 20
-6.660334964100947
 30
0.0
 11
71.25000608386573
 21
-5.685590092709369
 31
0.0
  0
LINE
  5
82
330
1F
100
AcDbEntity
  8
0
  6
CONTINUOUS
 62
     3
100
AcDbLine
 10
71.75000608386573
 20
-5.685590092709369
 30
0.0
 11
71.75000608386573
 21
-6.660334964100947
 31
0.0
  0
LINE
  5
83
330
1F
100
AcDbEntity
  8
0
  6
CONTINUOUS
 62
     3
100
AcDbLine
 10
71.75000608386573
 20
-7.160334964100947
 30
0.0
 11
71.75000608386573
 21
-8.13507983549254
 31
0.0
  0
LINE
  5
84
330
1F
100
AcDbEntity
  8
0
  6
CONTINUOUS
 62
     3
100
AcDbLine
 10
70.27526121247412
 20
-6.660334964100947
 30
0.0
 11
71.25000608386573
 21
-6.660334964100947
 31
0.0
  0
LINE
  5
85
330
1F
100
AcDbEntity
  8
0
  6
CONTINUOUS
 62
     3
100
AcDbLine
 10
71.75000608386573
 20
-6.660334964100947
 30
0.0
 11
72.72475095525731
 21
-6.660334964100947
 31
0.0
  0
CIRCLE
  5
86
330
1F
100
AcDbEntity
  8
0
  6
CONTINUOUS
 62
     3
100
AcDbCircle
 10
75.0000060838686
 20
-3.410334964096101
 30
0.0
 40
12.0
  0
CIRCLE
  5
87
330
1F
100
AcDbEntity
  8
0
  6
CONTINUOUS
 62
     3
100
AcDbCircle
 10
75.0000060838686
 20
-3.410334964096101
 30
0.0
 40
11.3
  0
CIRCLE
  5
88
330
1F
100
AcDbEntity
  8
0
  6
CONTINUOUS
 62
     3
100
AcDbCircle
 10
75.0000060838686
 20
-3.410334964096101
 30
0.0
 40
11.0
  0
CIRCLE
  5
89
330
1F
100
AcDbEntity
  8
0
  6
CONTINUOUS
 62
     3
100
AcDbCircle
 10
-74.00000608386858
 20
-3.999999999781501
 30
0.0
 40
12.0
  0
CIRCLE
  5
8A
330
1F
100
AcDbEntity
  8
0
  6
CONTINUOUS
 62
     3
100
AcDbCircle
 10
-74.00000608386858
 20
-3.999999999781501
 30
0.0
 40
10.75
  0
CIRCLE
  5
8B
330
1F
100
AcDbEntity
  8
0
  6
CONTINUOUS
 62
     3
100
AcDbCircle
 10
-74.00000608386858
 20
-3.999999999781501
 30
0.0
 40
1.0
  0
CIRCLE
  5
8C
330
1F
100
AcDbEntity
  8
0
  6
CONTINUOUS
 62
     3
100
AcDbCircle
 10
-74.00000608386858
 20
-3.999999999781501
 30
0.0
 40
2.0
  0
CIRCLE
  5
8D
330
1F
100
AcDbEntity
  8
0
  6
CONTINUOUS
 62
     3
100
AcDbCircle
 10
-74.00000608386858
 20
-3.999999999781501
 30
0.0
 40
3.5
  0
CIRCLE
  5
8E
330
1F
100
AcDbEntity
  8
0
  6
CONTINUOUS
 62
     3
100
AcDbCircle
 10
-80.00000608386856
 20
-3.999999999781501
 30
0.0
 40
0.7849999999999966
  0
CIRCLE
  5
8F
330
1F
100
AcDbEntity
  8
0
  6
CONTINUOUS
 62
     3
100
AcDbCircle
 10
-68.00000608386858
 20
-3.999999999781501
 30
0.0
 40
0.7849999999999966
  0
CIRCLE
  5
90
330
1F
100
AcDbEntity
  8
0
  6
CONTINUOUS
 62
     3
100
AcDbCircle
 10
-77.00000608386856
 20
-9.196152422488105
 30
0.0
 40
0.7849999999999966
  0
CIRCLE
  5
91
330
1F
100
AcDbEntity
  8
0
  6
CONTINUOUS
 62
     3
100
AcDbCircle
 10
-71.00000608386858
 20
1.196152422925117
 30
0.0
 40
0.7849999999999966
  0
CIRCLE
  5
92
330
1F
100
AcDbEntity
  8
0
  6
CONTINUOUS
 62
     3
100
AcDbCircle
 10
-77.00000608386858
 20
1.196152422925117
 30
0.0
 40
0.7849999999999966
  0
CIRCLE
  5
93
330
1F
100
AcDbEntity
  8
0
  6
CONTINUOUS
 62
     3
100
AcDbCircle
 10
-71.00000608386858
 20
-9.196152422488119
 30
0.0
 40
0.7849999999999966
  0
LINE
  5
94
330
1F
100
AcDbEntity
  8
0
  6
CONTINUOUS
 62
     3
100
AcDbLine
 10
5.499994011498828
 20
8.000000000218499
 30
0.0
 11
32.57675643517202
 21
8.000000000218499
 31
0.0
  0
LINE
  5
95
330
1F
100
AcDbEntity
  8
0
  6
CONTINUOUS
 62
     3
100
AcDbLine
 10
5.299994011498828
 20
7.80000000021851
 30
0.0
 11
5.299994011498828
 21
-15.79999999978148
 31
0.0
  0
LINE
  5
96
330
1F
100
AcDbEntity
  8
0
  6
CONTINUOUS
 62
     3
100
AcDbLine
 10
34.49999062879022
 20
4.235934180423662
 30
0.0
 11
34.49999062879022
 21
-12.19999996998013
 31
0.0
  0
LINE
  5
97
330
1F
100
AcDbEntity
  8
0
  6
CONTINUOUS
 62
     3
100
AcDbLine
 10
5.499994011498828
 20
-16.00000000021853
 30
0.0
 11
32.57675643517202
 21
-16.00000005938609
 31
0.0
  0
LINE
  5
98
330
1F
100
AcDbEntity
  8
0
  6
CONTINUOUS
 62
     3
100
AcDbLine
 10
34.49999062879022
 20
7.30000000021851
 30
0.0
 11
32.57675643517202
 21
8.000000000218499
 31
0.0
  0
LINE
  5
99
330
1F
100
AcDbEntity
  8
0
  6
CONTINUOUS
 62
     3
100
AcDbLine
 10
34.49999062879022
 20
7.000000000218499
 30
0.0
 11
34.49999062879022
 21
7.30000000021851
 31
0.0
  0
LINE
  5
9A
330
1F
100
AcDbEntity
  8
0
  6
CONTINUOUS
 62
     3
100
AcDbLine
 10
34.49999062879022
 20
-12.23593417998666
 30
0.0
 11
34.49999062879022
 21
-14.9999999997815
 31
0.0
  0
LINE
  5
9B
330
1F
100
AcDbEntity
  8
0
  6
CONTINUOUS
 62
     3
100
AcDbLine
 10
34.49999062879022
 20
-15.29999999978148
 30
0.0
 11
32.57675643517202
 21
-15.99999999978147
 31
0.0
  0
LINE
  5
9C
330
1F
100
AcDbEntity
  8
0
  6
CONTINUOUS
 62
     3
100
AcDbLine
 10
34.49999062879022
 20
-14.9999999997815
 30
0.0
 11
34.49999062879022
 21
-15.29999999978148
 31
0.0
  0
LINE
  5
9D
330
1F
100
AcDbEntity
  8
0
  6
CONTINUOUS
 62
     3
100
AcDbLine
 10
5.299994011498828
 20
-14.54999999978148
 30
0.0
 11
5.299994011498828
 21
6.55000000021851
 31
0.0
  0
LINE
  5
9E
330
1F
100
AcDbEntity
  8
0
  6
CONTINUOUS
 62
     3
100
AcDbLine
 10
4.649994011498833
 20
-1.00000002958388
 30
0.0
 11
5.299994011498828
 21
-1.00000002958388
 31
0.0
  0
LINE
  5
9F
330
1F
100
AcDbEntity
  8
0
  6
CONTINUOUS
 62
     3
100
AcDbLine
 10
4.649994011498833
 20
-7.000000029583866
 30
0.0
 11
5.299994011498828
 21
-7.000000029583866
 31
0.0
  0
LINE
  5
A0
330
1F
100
AcDbEntity
  8
0
  6
CONTINUOUS
 62
     3
100
AcDbLine
 10
4.649994011498833
 20
-1.00000002958388
 30
0.0
 11
4.499994011498828
 21
-1.150000029583886
 31
0.0
  0
LINE
  5
A1
330
1F
100
AcDbEntity
  8
0
  6
CONTINUOUS
 62
     3
100
AcDbLine
 10
4.499994011498828
 20
-6.850000029583875
 30
0.0
 11
4.649994011498833
 21
-7.000000029583866
 31
0.0
  0
LINE
  5
A2
330
1F
100
AcDbEntity
  8
0
  6
CONTINUOUS
 62
     3
100
AcDbLine
 10
4.499994011498828
 20
-1.150000029583886
 30
0.0
 11
4.499994011498828
 21
-6.850000029583875
 31
0.0
  0
LINE
  5
A3
330
1F
100
AcDbEntity
  8
0
  6
CONTINUOUS
 62
     3
100
AcDbLine
 10
32.57675643517202
 20
-15.99999999978147
 30
0.0
 11
32.57675643517202
 21
8.000000000218499
 31
0.0
  0
LINE
  5
A4
330
1F
100
AcDbEntity
  8
0
  6
CONTINUOUS
 62
     3
100
AcDbLine
 10
5.499994011498828
 20
8.000000000218499
 30
0.0
 11
5.299994011498828
 21
7.80000000021851
 31
0.0
  0
LINE
  5
A5
330
1F
100
AcDbEntity
  8
0
  6
CONTINUOUS
 62
     3
100
AcDbLine
 10
5.299994011498828
 20
-15.79999999978148
 30
0.0
 11
5.499994011498828
 21
-16.00000000021853
 31
0.0
  0
LINE
  5
A6
330
1F
100
AcDbEntity
  8
LAYER0008
  6
CONTINUOUS
 62
     3
100
AcDbLine
 10
73.20000608386572
 20
2.88251812492377
 30
0.0
 11
73.20000608386572
 21
2.739665035976451
 31
0.0
  0
ARC
  5
A7
330
1F
100
AcDbEntity
  8
LAYER0008
  6
CONTINUOUS
 62
     3
100
AcDbCircle
 10
72.70000608386572
 20
2.88251812492377
 30
0.0
 40
0.5
100
AcDbArc
 50
0.0
 51
110.077054400901
  0
LINE
  5
A8
330
1F
100
AcDbEntity
  8
LAYER0008
  6
CONTINUOUS
 62
     3
100
AcDbLine
 10
76.80000608386571
 20
2.739665035976451
 30
0.0
 11
76.80000608386571
 21
2.882518124925873
 31
0.0
  0
ARC
  5
A9
330
1F
100
AcDbEntity
  8
LAYER0008
  6
CONTINUOUS
 62
     3
100
AcDbCircle
 10
77.30000608386571
 20
2.882518124925873
 30
0.0
 40
0.5
100
AcDbArc
 50
69.92294559915118
 51
180.0
  0
ARC
  5
AA
330
1F
100
AcDbEntity
  8
LAYER0008
  6
CONTINUOUS
 62
     3
100
AcDbCircle
 10
75.0000060838686
 20
-3.410334964096101
 30
0.0
 40
7.200000000000003
100
AcDbArc
 50
290.0770544008427
 51
429.9229455991514
  0
LINE
  5
AB
330
1F
100
AcDbEntity
  8
LAYER0008
  6
CONTINUOUS
 62
     3
100
AcDbLine
 10
76.80000608386571
 20
-9.560334964170828
 30
0.0
 11
76.80000608386571
 21
-9.70318805312025
 31
0.0
  0
ARC
  5
AC
330
1F
100
AcDbEntity
  8
LAYER0008
  6
CONTINUOUS
 62
     3
100
AcDbCircle
 10
77.30000608386571
 20
-9.70318805312025
 30
0.0
 40
0.5
100
AcDbArc
 50
180.0
 51
290.0770544008488
  0
LINE
  5
AD
330
1F
100
AcDbEntity
  8
LAYER0008
  6
CONTINUOUS
 62
     3
100
AcDbLine
 10
73.20000608386572
 20
-9.703188053118147
 30
0.0
 11
73.20000608386572
 21
-9.560334964170828
 31
0.0
  0
ARC
  5
AE
330
1F
100
AcDbEntity
  8
LAYER0008
  6
CONTINUOUS
 62
     3
100
AcDbCircle
 10
72.70000608386572
 20
-9.703188053118147
 30
0.0
 40
0.5
100
AcDbArc
 50
249.922945599099
 51
360.0
  0
ARC
  5
AF
330
1F
100
AcDbEntity
  8
LAYER0008
  6
CONTINUOUS
 62
     3
100
AcDbCircle
 10
75.0000060838686
 20
-3.410334964096101
 30
0.0
 40
7.200000000000003
100
AcDbArc
 50
110.077054400901
 51
249.922945599105
  0
CIRCLE
  5
B0
330
1F
100
AcDbEntity
  8
LAYER0013
  6
CONTINUOUS
 62
     3
100
AcDbCircle
 10
75.0000060838686
 20
-3.410334964096101
 30
0.0
 40
8.774999999997114
  0
LINE
  5
B1
330
1F
100
AcDbEntity
  8
LAYER0013
  6
CONTINUOUS
 62
     3
100
AcDbLine
 10
37.29999246781625
 20
2.192853089239456
 30
0.0
 11
37.29999246781625
 21
-10.19285308880246
 31
0.0
  0
LINE
  5
B2
330
1F
100
AcDbEntity
  8
LAYER0013
  6
CONTINUOUS
 62
     3
100
AcDbLine
 10
36.69999246781626
 20
-10.79285308880245
 30
0.0
 11
36.09999246781625
 21
-10.79285308880245
 31
0.0
  0
ARC
  5
B3
330
1F
100
AcDbEntity
  8
LAYER0013
  6
CONTINUOUS
 62
     3
100
AcDbCircle
 10
36.69999246781626
 20
-10.19285308880246
 30
0.0
 40
0.6
100
AcDbArc
 50
270.0
 51
360.0
  0
LINE
  5
B4
330
1F
100
AcDbEntity
  8
LAYER0013
  6
CONTINUOUS
 62
     3
100
AcDbLine
 10
36.09999246781625
 20
-8.336664488295007
 30
0.0
 11
36.59999246781626
 21
-8.336664488295007
 31
0.0
  0
LINE
  5
B5
330
1F
100
AcDbEntity
  8
LAYER0013
  6
CONTINUOUS
 62
     3
100
AcDbLine
 10
36.09999246781625
 20
-9.74746388518728
 30
0.0
 11
36.59999246781626
 21
-9.74746388518728
 31
0.0
  0
LINE
  5
B6
330
1F
100
AcDbEntity
  8
LAYER0013
  6
CONTINUOUS
 62
     3
100
AcDbLine
 10
36.59999246781626
 20
-8.336664488295007
 30
0.0
 11
36.59999246781626
 21
-9.74746388518728
 31
0.0
  0
LINE
  5
B7
330
1F
100
AcDbEntity
  8
LAYER0013
  6
CONTINUOUS
 62
     3
100
AcDbLine
 10
36.09999246781625
 20
-3.999999999781501
 30
0.0
 11
36.09999246781625
 21
-10.79285308880245
 31
0.0
  0
ARC
  5
B8
330
1F
100
AcDbEntity
  8
LAYER0013
  6
CONTINUOUS
 62
     3
100
AcDbCircle
 10
36.69999246781626
 20
2.192853089239456
 30
0.0
 40
0.6
100
AcDbArc
 50
0.0
 51
90.0
  0
LINE
  5
B9
330
1F
100
AcDbEntity
  8
LAYER0013
  6
CONTINUOUS
 62
     3
100
AcDbLine
 10
36.09999246781655
 20
-11.1999999997804
 30
0.0
 11
36.09999246781645
 21
-10.89999999978043
 31
0.0
  0
LINE
  5
BA
330
1F
100
AcDbEntity
  8
LAYER0013
  6
CONTINUOUS
 62
     3
100
AcDbLine
 10
36.09999246781618
 20
3.244202590527443
 30
0.0
 11
36.09999246781645
 21
-10.89999999978043
 31
0.0
  0
LINE
  5
BB
330
1F
100
AcDbEntity
  8
LAYER0013
  6
CONTINUOUS
 62
     3
100
AcDbLine
 10
35.49999897626232
 20
-11.34999763090078
 30
0.0
 11
36.09999246781618
 21
-11.24420259009036
 31
0.0
  0
LINE
  5
BC
330
1F
100
AcDbEntity
  8
LAYER0013
  6
CONTINUOUS
 62
     3
100
AcDbLine
 10
36.69999246781626
 20
2.792853089239451
 30
0.0
 11
36.09999246781625
 21
2.792853089239451
 31
0.0
  0
LINE
  5
BD
330
1F
100
AcDbEntity
  8
LAYER0013
  6
CONTINUOUS
 62
     3
100
AcDbLine
 10
2.899994965173164
 20
-2.099999999781495
 30
0.0
 11
2.899994965173164
 21
-5.899999999781493
 31
0.0
  0
LINE
  5
BE
330
1F
100
AcDbEntity
  8
LAYER0013
  6
CONTINUOUS
 62
     3
100
AcDbLine
 10
2.899994965173164
 20
-2.099999999781495
 30
0.0
 11
2.999994965173165
 21
-1.999999999781501
 31
0.0
  0
LINE
  5
BF
330
1F
100
AcDbEntity
  8
LAYER0013
  6
CONTINUOUS
 62
     3
100
AcDbLine
 10
3.799994965173163
 20
-1.999999999781501
 30
0.0
 11
3.899994965173164
 21
-2.099999999781495
 31
0.0
  0
LINE
  5
C0
330
1F
100
AcDbEntity
  8
LAYER0013
  6
CONTINUOUS
 62
     3
100
AcDbLine
 10
2.899994965173164
 20
-5.899999999781493
 30
0.0
 11
2.999994965173165
 21
-5.999999999781487
 31
0.0
  0
LINE
  5
C1
330
1F
100
AcDbEntity
  8
LAYER0013
  6
CONTINUOUS
 62
     3
100
AcDbLine
 10
3.899994965173164
 20
-5.899999999781493
 30
0.0
 11
3.799994965173163
 21
-5.999999999781487
 31
0.0
  0
LINE
  5
C2
330
1F
100
AcDbEntity
  8
0
  6
CENTER
 62
     9
100
AcDbLine
 10
-74.00000608386858
 20
10.0000000002185
 30
0.0
 11
-74.00000608386858
 21
-17.99999999978153
 31
0.0
  0
LINE
  5
C3
330
1F
100
AcDbEntity
  8
0
  6
CENTER
 62
     9
100
AcDbLine
 10
-75.50000608386858
 20
1.196152422925117
 30
0.0
 11
-78.50000608386858
 21
1.196152422925117
 31
0.0
  0
LINE
  5
C4
330
1F
100
AcDbEntity
  8
0
  6
CENTER
 62
     9
100
AcDbLine
 10
-77.00000608386858
 20
2.696152422925117
 30
0.0
 11
-77.00000608386858
 21
-0.3038475770748832
 31
0.0
  0
LINE
  5
C5
330
1F
100
AcDbEntity
  8
0
  6
CENTER
 62
     9
100
AcDbLine
 10
-72.50000608386858
 20
1.196152422925117
 30
0.0
 11
-69.50000608386858
 21
1.196152422925117
 31
0.0
  0
LINE
  5
C6
330
1F
100
AcDbEntity
  8
0
  6
CENTER
 62
     9
100
AcDbLine
 10
-71.00000608386858
 20
2.696152422925117
 30
0.0
 11
-71.00000608386858
 21
-0.3038475770748832
 31
0.0
  0
LINE
  5
C7
330
1F
100
AcDbEntity
  8
0
  6
CENTER
 62
     9
100
AcDbLine
 10
-77.00000608386858
 20
-10.69615242248815
 30
0.0
 11
-77.00000608386858
 21
-7.696152422488147
 31
0.0
  0
LINE
  5
C8
330
1F
100
AcDbEntity
  8
0
  6
CENTER
 62
     9
100
AcDbLine
 10
-75.50000608386858
 20
-9.196152422488147
 30
0.0
 11
-78.50000608386858
 21
-9.196152422488147
 31
0.0
  0
LINE
  5
C9
330
1F
100
AcDbEntity
  8
0
  6
CENTER
 62
     9
100
AcDbLine
 10
-72.50000608386858
 20
-9.196152422488147
 30
0.0
 11
-69.50000608386858
 21
-9.196152422488147
 31
0.0
  0
LINE
  5
CA
330
1F
100
AcDbEntity
  8
0
  6
CENTER
 62
     9
100
AcDbLine
 10
-71.00000608386858
 20
-10.69615242248815
 30
0.0
 11
-71.00000608386858
 21
-7.696152422488147
 31
0.0
  0
LINE
  5
CB
330
1F
100
AcDbEntity
  8
0
  6
CENTER
 62
     9
100
AcDbLine
 10
-80.00000608386857
 20
-2.499999999781515
 30
0.0
 11
-80.00000608386857
 21
-5.499999999781515
 31
0.0
  0
LINE
  5
CC
330
1F
100
AcDbEntity
  8
0
  6
CENTER
 62
     9
100
AcDbLine
 10
-68.0000060838686
 20
-2.499999999781515
 30
0.0
 11
-68.0000060838686
 21
-5.499999999781515
 31
0.0
  0
LINE
  5
CD
330
1F
100
AcDbEntity
  8
0
  6
CENTER
 62
     9
100
AcDbLine
 10
88.0000060838686
 20
-3.410334964096101
 30
0.0
 11
62.0000060838686
 21
-3.410334964096101
 31
0.0
  0
LINE
  5
CE
330
1F
100
AcDbEntity
  8
0
  6
CENTER
 62
     9
100
AcDbLine
 10
75.0000060838686
 20
9.589665035903899
 30
0.0
 11
75.0000060838686
 21
-16.4103349640961
 31
0.0
  0
LINE
  5
CF
330
1F
100
AcDbEntity
  8
0
  6
CONTINUOUS
 62
     9
100
AcDbLine
 10
-80.00000608386857
 20
-1.499999999781515
 30
0.0
 11
-80.00000608386857
 21
17.00000000021849
 31
0.0
  0
LINE
  5
D0
330
1F
100
AcDbEntity
  8
0
  6
CONTINUOUS
 62
     9
100
AcDbLine
 10
-68.0000060838686
 20
-1.499999999781515
 30
0.0
 11
-68.0000060838686
 21
17.00000000021849
 31
0.0
  0
LINE
  5
D1
330
1F
100
AcDbEntity
  8
0
  6
CONTINUOUS
 62
     9
100
AcDbLine
 10
-12.00000608386859
 20
-5.000000084345597
 30
0.0
 11
-12.00000608386859
 21
-3.000000084345597
 31
0.0
  0
LINE
  5
D2
330
1F
100
AcDbEntity
  8
0
  6
CONTINUOUS
 62
     9
100
AcDbLine
 10
-22.00000608386859
 20
-5.999999994938683
 30
0.0
 11
-22.00000608386859
 21
-1.999999994938687
 31
0.0
  0
LINE
  5
D3
330
1F
100
AcDbEntity
  8
0
  6
CONTINUOUS
 62
     9
100
AcDbLine
 10
-32.00000608386859
 20
-6.999999994938687
 30
0.0
 11
-32.00000608386859
 21
-0.9999999949387011
 31
0.0
  0
LINE
  5
D4
330
1F
100
AcDbEntity
  8
0
  6
CONTINUOUS
 62
     9
100
AcDbLine
 10
-43.39463611294701
 20
-24.0000000002185
 30
0.0
 11
-86.00000608386856
 21
-24.00000000021849
 31
0.0
  0
LINE
  5
D5
330
1F
100
AcDbEntity
  8
0
  6
CONTINUOUS
 62
     9
100
AcDbLine
 10
-2.000006083868584
 20
-2.200000084345597
 30
0.0
 11
-2.000006083868584
 21
25.0000000002185
 31
0.0
  0
LINE
  5
D6
330
1F
100
AcDbEntity
  8
0
  6
CONTINUOUS
 62
     9
100
AcDbLine
 10
5.299994011498828
 20
8.80000000021851
 30
0.0
 11
5.299994011498828
 21
25.0000000002185
 31
0.0
  0
LINE
  5
D7
330
1F
100
AcDbEntity
  8
0
  6
CONTINUOUS
 62
     9
100
AcDbLine
 10
-2.000006083868584
 20
24.0000000002185
 30
0.0
 11
5.299994011498828
 21
24.0000000002185
 31
0.0
  0
LINE
  5
D8
330
1F
100
AcDbEntity
  8
0
  6
CONTINUOUS
 62
     9
100
AcDbLine
 10
36.09999246781618
 20
4.244202590527443
 30
0.0
 11
36.09999246781618
 21
25.0000000002185
 31
0.0
  0
LINE
  5
D9
330
1F
100
AcDbEntity
  8
0
  6
CONTINUOUS
 62
     9
100
AcDbLine
 10
39.0000060838686
 20
4.000000089748191
 30
0.0
 11
39.0000060838686
 21
25.0000000002185
 31
0.0
  0
LINE
  5
DA
330
1F
100
AcDbEntity
  8
0
  6
CONTINUOUS
 62
     9
100
AcDbLine
 10
36.09999246781618
 20
24.0000000002185
 30
0.0
 11
39.0000060838686
 21
24.0000000002185
 31
0.0
  0
LINE
  5
DB
330
1F
100
AcDbEntity
  8
0
  6
CONTINUOUS
 62
     9
100
AcDbLine
 10
37.29999246781627
 20
3.192853089239456
 30
0.0
 11
37.29999246781627
 21
17.0000000002185
 31
0.0
  0
LINE
  5
DC
330
1F
100
AcDbEntity
  8
0
  6
CONTINUOUS
 62
     9
100
AcDbLine
 10
36.09999246781618
 20
4.244202590527443
 30
0.0
 11
36.09999246781618
 21
17.0000000002185
 31
0.0
  0
LINE
  5
DD
330
1F
100
AcDbEntity
  8
0
  6
CONTINUOUS
 62
     9
100
AcDbLine
 10
36.09999246781618
 20
16.0000000002185
 30
0.0
 11
37.29999246781627
 21
16.0000000002185
 31
0.0
  0
LINE
  5
DE
330
1F
100
AcDbEntity
  8
0
  6
CONTINUOUS
 62
     9
100
AcDbLine
 10
4.499994011498828
 20
-16.00000005938609
 30
0.0
 11
-43.10877801369315
 21
-16.00000005938609
 31
0.0
  0
LINE
  5
DF
330
1F
100
AcDbEntity
  8
0
  6
CONTINUOUS
 62
     9
100
AcDbLine
 10
4.499994011498828
 20
8.000000000218499
 30
0.0
 11
-43.10877801369315
 21
8.000000000218499
 31
0.0
  0
LINE
  5
E0
330
1F
100
AcDbEntity
  8
0
  6
CONTINUOUS
 62
     9
100
AcDbLine
 10
40.0000060838686
 20
-10.70000008931121
 30
0.0
 11
50.0000060838686
 21
-10.70000008931121
 31
0.0
  0
LINE
  5
E1
330
1F
100
AcDbEntity
  8
0
  6
CONTINUOUS
 62
     9
100
AcDbLine
 10
40.0000060838686
 20
2.700000089748208
 30
0.0
 11
50.0000060838686
 21
2.700000089748208
 31
0.0
  0
LINE
  5
E2
330
1F
100
AcDbEntity
  8
0
  6
CONTINUOUS
 62
     9
100
AcDbLine
 10
4.499994011498828
 20
-0.1500000295838859
 30
0.0
 11
4.499994011498828
 21
17.0000000002185
 31
0.0
  0
LINE
  5
E3
330
1F
100
AcDbEntity
  8
0
  6
CONTINUOUS
 62
     9
100
AcDbLine
 10
5.299994011498828
 20
8.80000000021851
 30
0.0
 11
5.299994011498828
 21
17.0000000002185
 31
0.0
  0
LINE
  5
E4
330
1F
100
AcDbEntity
  8
0
  6
CONTINUOUS
 62
     9
100
AcDbLine
 10
4.499994011498828
 20
16.0000000002185
 30
0.0
 11
5.299994011498828
 21
16.0000000002185
 31
0.0
  0
LINE
  5
E5
330
1F
100
AcDbEntity
  8
0
  6
CONTINUOUS
 62
     9
100
AcDbLine
 10
5.299994011498828
 20
-16.79999999978148
 30
0.0
 11
5.299994011498828
 21
-25.00000000021853
 31
0.0
  0
LINE
  5
E6
330
1F
100
AcDbEntity
  8
0
  6
CONTINUOUS
 62
     9
100
AcDbLine
 10
2.899994965173164
 20
-6.899999999781493
 30
0.0
 11
2.899994965173164
 21
-25.00000000021853
 31
0.0
  0
LINE
  5
E7
330
1F
100
AcDbEntity
  8
0
  6
CONTINUOUS
 62
     9
100
AcDbLine
 10
2.899994965173164
 20
-24.00000000021853
 30
0.0
 11
5.299994011498828
 21
-24.00000000021853
 31
0.0
  0
LINE
  5
E8
330
1F
100
AcDbEntity
  8
0
  6
CONTINUOUS
 62
     9
100
AcDbLine
 10
-2.800006083868588
 20
-5.000000089188397
 30
0.0
 11
-13.00000608386859
 21
-5.000000089188397
 31
0.0
  0
LINE
  5
E9
330
1F
100
AcDbEntity
  8
0
  6
CONTINUOUS
 62
     9
100
AcDbLine
 10
-2.800006083868588
 20
-3.000000084345596
 30
0.0
 11
-13.00000608386859
 21
-3.000000084345596
 31
0.0
  0
LINE
  5
EA
330
1F
100
AcDbEntity
  8
0
  6
CONTINUOUS
 62
     9
100
AcDbLine
 10
1.999994965173165
 20
-5.999999999781487
 30
0.0
 11
-23.00000608386859
 21
-5.999999999781487
 31
0.0
  0
LINE
  5
EB
330
1F
100
AcDbEntity
  8
0
  6
CONTINUOUS
 62
     9
100
AcDbLine
 10
1.999994965173165
 20
-1.999999999781501
 30
0.0
 11
-23.00000608386859
 21
-1.999999999781501
 31
0.0
  0
LINE
  5
EC
330
1F
100
AcDbEntity
  8
0
  6
CONTINUOUS
 62
     9
100
AcDbLine
 10
3.649994011498833
 20
-7.000000029583866
 30
0.0
 11
-33.00000608386859
 21
-7.000000029583866
 31
0.0
  0
LINE
  5
ED
330
1F
100
AcDbEntity
  8
0
  6
CONTINUOUS
 62
     9
100
AcDbLine
 10
3.649994011498833
 20
-1.00000002958388
 30
0.0
 11
-33.00000608386859
 21
-1.00000002958388
 31
0.0
  0
LINE
  5
EE
330
1F
100
AcDbEntity
  8
0
  6
CONTINUOUS
 62
     9
100
AcDbLine
 10
-80.00000608386857
 20
16.00000000021849
 30
0.0
 11
-68.0000060838686
 21
16.00000000021849
 31
0.0
  0
INSERT
  5
EF
330
1F
100
AcDbEntity
  8
0
 62
     9
100
AcDbBlockReference
  2
_OPEN30
 10
-80.00000608386857
 20
16.00000000021849
 30
0.0
 41
3.000002787824364
 42
2.999989273978464
 50
180.0
  0
INSERT
  5
F0
330
1F
100
AcDbEntity
  8
0
 62
     9
100
AcDbBlockReference
  2
_OPEN30
 10
-68.0000060838686
 20
16.00000000021849
 30
0.0
 41
3.000002787824364
 42
2.999989273978464
 50
360.0
  0
LINE
  5
F1
330
1F
100
AcDbEntity
  8
0
  6
CONTINUOUS
 62
     9
100
AcDbLine
 10
5.299994011498828
 20
24.0000000002185
 30
0.0
 11
36.09999246781618
 21
24.0000000002185
 31
0.0
  0
INSERT
  5
F2
330
1F
100
AcDbEntity
  8
0
 62
     9
100
AcDbBlockReference
  2
_OPEN30
 10
5.299994011498828
 20
24.0000000002185
 30
0.0
 41
3.000002787824364
 42
2.999989273978464
 50
180.0
  0
INSERT
  5
F3
330
1F
100
AcDbEntity
  8
0
 62
     9
100
AcDbBlockReference
  2
_OPEN30
 10
36.09999246781618
 20
24.0000000002185
 30
0.0
 41
3.000002787824364
 42
2.999989273978464
 50
360.0
  0
LINE
  5
F4
330
1F
100
AcDbEntity
  8
0
  6
CONTINUOUS
 62
     9
100
AcDbLine
 10
-42.00000608386859
 20
-16.00000005938609
 30
0.0
 11
-42.00000608386859
 21
8.000000000218499
 31
0.0
  0
INSERT
  5
F5
330
1F
100
AcDbEntity
  8
0
 62
     9
100
AcDbBlockReference
  2
_OPEN30
 10
-42.00000608386859
 20
-16.00000005938609
 30
0.0
 41
3.000002787824364
 42
2.999989273978464
 50
270.0
  0
INSERT
  5
F6
330
1F
100
AcDbEntity
  8
0
 62
     9
100
AcDbBlockReference
  2
_OPEN30
 10
-42.00000608386859
 20
8.000000000218499
 30
0.0
 41
3.000002787824364
 42
2.999989273978464
 50
90.0
  0
LINE
  5
F7
330
1F
100
AcDbEntity
  8
0
  6
CONTINUOUS
 62
     9
100
AcDbLine
 10
49.0000060838686
 20
-10.70000008931121
 30
0.0
 11
49.0000060838686
 21
2.700000089748208
 31
0.0
  0
INSERT
  5
F8
330
1F
100
AcDbEntity
  8
0
 62
     9
100
AcDbBlockReference
  2
_OPEN30
 10
49.0000060838686
 20
-10.70000008931121
 30
0.0
 41
3.000002787824364
 42
2.999989273978464
 50
270.0
  0
INSERT
  5
F9
330
1F
100
AcDbEntity
  8
0
 62
     9
100
AcDbBlockReference
  2
_OPEN30
 10
49.0000060838686
 20
2.700000089748208
 30
0.0
 41
3.000002787824364
 42
2.999989273978464
 50
90.0
  0
LINE
  5
FA
330
1F
100
AcDbEntity
  8
0
  6
CONTINUOUS
 62
     9
100
AcDbLine
 10
-80.22557417403361
 20
-4.751893633681458
 30
0.0
 11
-86.00000608386858
 21
-24.00000000021854
 31
0.0
  0
INSERT
  5
FB
330
1F
100
AcDbEntity
  8
0
 62
     9
100
AcDbBlockReference
  2
_OPEN30
 10
-80.22557417403361
 20
-4.751893633681458
 30
0.0
 41
3.000002787824364
 42
2.999989273978464
 50
73.30075576635089
  0
LINE
  5
FC
330
1F
100
AcDbEntity
  8
0
  6
CONTINUOUS
 62
     9
100
AcDbLine
 10
-32.00000608386859
 20
-11.99999999493869
 30
0.0
 11
-32.00000608386859
 21
-6.999999994938687
 31
0.0
  0
INSERT
  5
FD
330
1F
100
AcDbEntity
  8
0
 62
     9
100
AcDbBlockReference
  2
_OPEN30
 10
-32.00000608386859
 20
-6.999999994938687
 30
0.0
 41
3.000002787824364
 42
2.999989273978464
 50
90.0
  0
LINE
  5
FE
330
1F
100
AcDbEntity
  8
0
  6
CONTINUOUS
 62
     9
100
AcDbLine
 10
-32.00000608386859
 20
4.000000005061299
 30
0.0
 11
-32.00000608386859
 21
-0.9999999949387011
 31
0.0
  0
INSERT
  5
FF
330
1F
100
AcDbEntity
  8
0
 62
     9
100
AcDbBlockReference
  2
_OPEN30
 10
-32.00000608386859
 20
-0.9999999949387011
 30
0.0
 41
3.000002787824364
 42
2.999989273978464
 50
270.0
  0
LINE
  5
100
330
1F
100
AcDbEntity
  8
0
  6
CONTINUOUS
 62
     9
100
AcDbLine
 10
-22.00000608386859
 20
25.7200000002185
 30
0.0
 11
-22.00000608386859
 21
-1.999999994938687
 31
0.0
  0
INSERT
  5
101
330
1F
100
AcDbEntity
  8
0
 62
     9
100
AcDbBlockReference
  2
_OPEN30
 10
-22.00000608386859
 20
-1.999999994938687
 30
0.0
 41
3.000002787824364
 42
2.999989273978464
 50
270.0
  0
LINE
  5
102
330
1F
100
AcDbEntity
  8
0
  6
CONTINUOUS
 62
     9
100
AcDbLine
 10
-22.00000608386859
 20
-10.99999999493868
 30
0.0
 11
-22.00000608386859
 21
-5.999999994938683
 31
0.0
  0
INSERT
  5
103
330
1F
100
AcDbEntity
  8
0
 62
     9
100
AcDbBlockReference
  2
_OPEN30
 10
-22.00000608386859
 20
-5.999999994938683
 30
0.0
 41
3.000002787824364
 42
2.999989273978464
 50
90.0
  0
LINE
  5
104
330
1F
100
AcDbEntity
  8
0
  6
CONTINUOUS
 62
     9
100
AcDbLine
 10
-12.00000608386859
 20
29.8800000002185
 30
0.0
 11
-12.00000608386859
 21
-3.000000084345597
 31
0.0
  0
INSERT
  5
105
330
1F
100
AcDbEntity
  8
0
 62
     9
100
AcDbBlockReference
  2
_OPEN30
 10
-12.00000608386859
 20
-3.000000084345597
 30
0.0
 41
3.000002787824364
 42
2.999989273978464
 50
270.0
  0
LINE
  5
106
330
1F
100
AcDbEntity
  8
0
  6
CONTINUOUS
 62
     9
100
AcDbLine
 10
-12.00000608386859
 20
-10.0000000843456
 30
0.0
 11
-12.00000608386859
 21
-5.000000084345597
 31
0.0
  0
INSERT
  5
107
330
1F
100
AcDbEntity
  8
0
 62
     9
100
AcDbBlockReference
  2
_OPEN30
 10
-12.00000608386859
 20
-5.000000084345597
 30
0.0
 41
3.000002787824364
 42
2.999989273978464
 50
90.0
  0
LINE
  5
108
330
1F
100
AcDbEntity
  8
0
  6
CONTINUOUS
 62
     9
100
AcDbLine
 10
44.0000060838686
 20
24.0000000002185
 30
0.0
 11
39.0000060838686
 21
24.0000000002185
 31
0.0
  0
INSERT
  5
109
330
1F
100
AcDbEntity
  8
0
 62
     9
100
AcDbBlockReference
  2
_OPEN30
 10
39.0000060838686
 20
24.0000000002185
 30
0.0
 41
3.000002787824364
 42
2.999989273978464
 50
180.0
  0
LINE
  5
10A
330
1F
100
AcDbEntity
  8
0
  6
CONTINUOUS
 62
     9
100
AcDbLine
 10
-7.000006083868584
 20
24.0000000002185
 30
0.0
 11
-2.000006083868584
 21
24.0000000002185
 31
0.0
  0
INSERT
  5
10B
330
1F
100
AcDbEntity
  8
0
 62
     9
100
AcDbBlockReference
  2
_OPEN30
 10
-2.000006083868584
 20
24.0000000002185
 30
0.0
 41
3.000002787824364
 42
2.999989273978464
 50
360.0
  0
LINE
  5
10C
330
1F
100
AcDbEntity
  8
0
  6
CONTINUOUS
 62
     9
100
AcDbLine
 10
19.79777401149883
 20
16.0000000002185
 30
0.0
 11
5.299994011498828
 21
16.0000000002185
 31
0.0
  0
INSERT
  5
10D
330
1F
100
AcDbEntity
  8
0
 62
     9
100
AcDbBlockReference
  2
_OPEN30
 10
5.299994011498828
 20
16.0000000002185
 30
0.0
 41
3.000002787824364
 42
2.999989273978464
 50
180.0
  0
LINE
  5
10E
330
1F
100
AcDbEntity
  8
0
  6
CONTINUOUS
 62
     9
100
AcDbLine
 10
-0.5000059885011723
 20
16.0000000002185
 30
0.0
 11
4.499994011498828
 21
16.0000000002185
 31
0.0
  0
INSERT
  5
10F
330
1F
100
AcDbEntity
  8
0
 62
     9
100
AcDbBlockReference
  2
_OPEN30
 10
4.499994011498828
 20
16.0000000002185
 30
0.0
 41
3.000002787824364
 42
2.999989273978464
 50
360.0
  0
LINE
  5
110
330
1F
100
AcDbEntity
  8
0
  6
CONTINUOUS
 62
     9
100
AcDbLine
 10
21.60221246781618
 20
16.0000000002185
 30
0.0
 11
36.09999246781618
 21
16.0000000002185
 31
0.0
  0
INSERT
  5
111
330
1F
100
AcDbEntity
  8
0
 62
     9
100
AcDbBlockReference
  2
_OPEN30
 10
36.09999246781618
 20
16.0000000002185
 30
0.0
 41
3.000002787824364
 42
2.999989273978464
 50
360.0
  0
LINE
  5
112
330
1F
100
AcDbEntity
  8
0
  6
CONTINUOUS
 62
     9
100
AcDbLine
 10
42.29999246781627
 20
16.0000000002185
 30
0.0
 11
37.29999246781627
 21
16.0000000002185
 31
0.0
  0
INSERT
  5
113
330
1F
100
AcDbEntity
  8
0
 62
     9
100
AcDbBlockReference
  2
_OPEN30
 10
37.29999246781627
 20
16.0000000002185
 30
0.0
 41
3.000002787824364
 42
2.999989273978464
 50
180.0
  0
LINE
  5
114
330
1F
100
AcDbEntity
  8
0
  6
CONTINUOUS
 62
     9
100
AcDbLine
 10
-11.59778503482684
 20
-24.00000000021853
 30
0.0
 11
2.899994965173164
 21
-24.00000000021853
 31
0.0
  0
INSERT
  5
115
330
1F
100
AcDbEntity
  8
0
 62
     9
100
AcDbBlockReference
  2
_OPEN30
 10
2.899994965173164
 20
-24.00000000021853
 30
0.0
 41
3.000002787824364
 42
2.999989273978464
 50
360.0
  0
LINE
  5
116
330
1F
100
AcDbEntity
  8
0
  6
CONTINUOUS
 62
     9
100
AcDbLine
 10
10.29999401149883
 20
-24.00000000021853
 30
0.0
 11
5.299994011498828
 21
-24.00000000021853
 31
0.0
  0
INSERT
  5
117
330
1F
100
AcDbEntity
  8
0
 62
     9
100
AcDbBlockReference
  2
_OPEN30
 10
5.299994011498828
 20
-24.00000000021853
 30
0.0
 41
3.000002787824364
 42
2.999989273978464
 50
180.0
  0
LINE
  5
118
330
1F
100
AcDbEntity
  8
0
  6
CENTER
 62
     9
100
AcDbLine
 10
-74.00000608386858
 20
-3.999999999781501
 30
0.0
 11
-70.13720026141559
 21
2.690575944479886
 31
0.0
  0
LINE
  5
119
330
1F
100
AcDbEntity
  8
0
  6
CENTER
 62
     9
100
AcDbLine
 10
-88.0000060838686
 20
-3.999999999781515
 30
0.0
 11
-60.00000608386857
 21
-3.999999999781515
 31
0.0
  0
LINE
  5
11A
330
1F
100
AcDbEntity
  8
0
  6
CENTER
 62
     9
100
AcDbLine
 10
-4.000006083868584
 20
-3.999999999781501
 30
0.0
 11
39.29999246781625
 21
-3.999999999781501
 31
0.0
  0
CIRCLE
  5
11B
330
1F
100
AcDbEntity
  8
0
  6
CONTINUOUS
 62
     9
100
AcDbCircle
 10
-80.00000608386856
 20
-3.999999999781501
 30
0.0
 40
1.0
  0
CIRCLE
  5
11C
330
1F
100
AcDbEntity
  8
0
  6
CONTINUOUS
 62
     9
100
AcDbCircle
 10
-68.00000608386858
 20
-3.999999999781501
 30
0.0
 40
1.0
  0
CIRCLE
  5
11D
330
1F
100
AcDbEntity
  8
0
  6
CONTINUOUS
 62
     9
100
AcDbCircle
 10
-77.00000608386856
 20
-9.196152422488105
 30
0.0
 40
1.0
  0
CIRCLE
  5
11E
330
1F
100
AcDbEntity
  8
0
  6
CONTINUOUS
 62
     9
100
AcDbCircle
 10
-71.00000608386858
 20
1.196152422925117
 30
0.0
 40
1.0
  0
CIRCLE
  5
11F
330
1F
100
AcDbEntity
  8
0
  6
CONTINUOUS
 62
     9
100
AcDbCircle
 10
-77.00000608386858
 20
1.196152422925117
 30
0.0
 40
1.0
  0
CIRCLE
  5
120
330
1F
100
AcDbEntity
  8
0
  6
CONTINUOUS
 62
     9
100
AcDbCircle
 10
-71.00000608386858
 20
-9.196152422488119
 30
0.0
 40
1.0
  0
TEXT
  5
121
330
1F
100
AcDbEntity
  8
0
 62
     7
100
AcDbText
 10
-77.20000608386859
 20
17.00000000021849
 30
0.0
 40
4.0
  1
12
 41
0.8000000000000007
  7
FDASTYLE0
 72
     5
 11
-70.80000608386858
 21
17.00000000021849
 31
0.0
100
AcDbText
  0
TEXT
  5
122
330
1F
100
AcDbEntity
  8
0
 62
     7
100
AcDbText
 10
-13.00000608386859
 20
9.000000000218499
 30
0.0
 40
4.0
  1
φ2
 50
90.0
 41
0.7272727272727273
  7
FDASTYLE0
 72
     5
 11
-13.00000608386859
 21
15.4000000002185
 31
0.0
100
AcDbText
  0
TEXT
  5
123
330
1F
100
AcDbEntity
  8
0
 62
     7
100
AcDbText
 10
-15.60000608386859
 20
16.4000000002185
 30
0.0
 40
2.6
  1
-0.005
 50
90.0
 41
0.7999999999999999
  7
FDASTYLE0
 72
     5
 11
-15.60000608386859
 21
28.8800000002185
 31
0.0
100
AcDbText
  0
TEXT
  5
124
330
1F
100
AcDbEntity
  8
0
 62
     7
100
AcDbText
 10
-12.80000608386859
 20
16.4000000002185
 30
0.0
 40
2.6
  1
-0.010
 50
90.0
 41
0.7999999999999999
  7
FDASTYLE0
 72
     5
 11
-12.80000608386859
 21
28.8800000002185
 31
0.0
100
AcDbText
  0
TEXT
  5
125
330
1F
100
AcDbEntity
  8
0
 62
     7
100
AcDbText
 10
-23.00000608386859
 20
9.000000000218499
 30
0.0
 40
4.0
  1
φ4
 50
90.0
 41
0.7272727272727271
  7
FDASTYLE0
 72
     5
 11
-23.00000608386859
 21
15.4000000002185
 31
0.0
100
AcDbText
  0
TEXT
  5
126
330
1F
100
AcDbEntity
  8
0
 62
     7
100
AcDbText
 10
-25.60000608386859
 20
16.4000000002185
 30
0.0
 40
2.6
  1
±0.2
 50
90.0
 41
0.7619047619047619
  7
FDASTYLE0
 72
     5
 11
-25.60000608386859
 21
24.7200000002185
 31
0.0
100
AcDbText
  0
TEXT
  5
127
330
1F
100
AcDbEntity
  8
0
 62
     7
100
AcDbText
 10
-33.00000608386859
 20
-12.8999999949387
 30
0.0
 40
4.0
  1
φ6
 50
90.0
 41
0.7272727272727274
  7
FDASTYLE0
 72
     5
 11
-33.00000608386859
 21
-6.499999994938694
 31
0.0
100
AcDbText
  0
TEXT
  5
128
330
1F
100
AcDbEntity
  8
0
 62
     7
100
AcDbText
 10
-35.60000608386859
 20
-5.49999999493869
 30
0.0
 40
2.6
  1
+0.03
 50
90.0
 41
0.7999999999999999
  7
FDASTYLE0
 72
     5
 11
-35.60000608386859
 21
4.900000005061308
 31
0.0
100
AcDbText
  0
TEXT
  5
129
330
1F
100
AcDbEntity
  8
0
 62
     7
100
AcDbText
 10
-32.80000608386859
 20
-5.49999999493869
 30
0.0
 40
2.6
  1
　0
 50
90.0
 41
0.7272727272727272
  7
FDASTYLE0
 72
     5
 11
-32.80000608386859
 21
-1.33999999493869
 31
0.0
100
AcDbText
  0
TEXT
  5
12A
330
1F
100
AcDbEntity
  8
0
 62
     7
100
AcDbText
 10
-83.00000608386861
 20
-23.00000000021854
 30
0.0
 40
4.0
  1
6-Ｍ2（Ｐ＝0.4）
 41
0.7333333333333334
  7
FDASTYLE0
 72
     5
 11
-47.80000608386861
 21
-23.00000000021854
 31
0.0
100
AcDbText
  0
TEXT
  5
12B
330
1F
100
AcDbEntity
  8
0
 62
     7
100
AcDbText
 10
-3.150006036184879
 20
25.0000000002185
 30
0.0
 40
4.0
  1
7.3
 41
0.8000000000000002
  7
FDASTYLE0
 72
     5
 11
6.449993963815123
 21
25.0000000002185
 31
0.0
100
AcDbText
  0
TEXT
  5
12C
330
1F
100
AcDbEntity
  8
0
 62
     7
100
AcDbText
 10
14.29999323965751
 20
25.0000000002185
 30
0.0
 40
4.0
  1
30.8
 41
0.8000000000000002
  7
FDASTYLE0
 72
     5
 11
27.09999323965751
 21
25.0000000002185
 31
0.0
100
AcDbText
  0
TEXT
  5
12D
330
1F
100
AcDbEntity
  8
0
 62
     7
100
AcDbText
 10
32.74999927584238
 20
25.0000000002185
 30
0.0
 40
4.0
  1
2.9
 41
0.8000000000000007
  7
FDASTYLE0
 72
     5
 11
42.34999927584239
 21
25.0000000002185
 31
0.0
100
AcDbText
  0
TEXT
  5
12E
330
1F
100
AcDbEntity
  8
0
 62
     7
100
AcDbText
 10
22.60221246781618
 20
17.0000000002185
 30
0.0
 40
4.0
  1
1.2
 41
0.8000000000000002
  7
FDASTYLE0
 72
     5
 11
32.20221246781618
 21
17.0000000002185
 31
0.0
100
AcDbText
  0
TEXT
  5
12F
330
1F
100
AcDbEntity
  8
0
 62
     7
100
AcDbText
 10
-43.00000608386859
 20
-13.4600000295838
 30
0.0
 40
4.0
  1
φ24
 50
90.0
 41
0.7500000000000007
  7
FDASTYLE0
 72
     5
 11
-43.00000608386859
 21
-3.860000029583791
 31
0.0
100
AcDbText
  0
TEXT
  5
130
330
1F
100
AcDbEntity
  8
0
 62
     7
100
AcDbText
 10
48.0000060838686
 20
-10.3999999997815
 30
0.0
 40
4.0
  1
13.4
 50
90.0
 41
0.7999999999999998
  7
FDASTYLE0
 72
     5
 11
48.0000060838686
 21
2.400000000218498
 31
0.0
100
AcDbText
  0
TEXT
  5
131
330
1F
100
AcDbEntity
  8
0
 62
     7
100
AcDbText
 10
9.197774011498829
 20
17.0000000002185
 30
0.0
 40
4.0
  1
0.8
 41
0.8000000000000002
  7
FDASTYLE0
 72
     5
 11
18.79777401149883
 21
17.0000000002185
 31
0.0
100
AcDbText
  0
TEXT
  5
132
330
1F
100
AcDbEntity
  8
0
 62
     7
100
AcDbText
 10
-10.59778503482684
 20
-23.00000000021853
 30
0.0
 40
4.0
  1
2.4
 41
0.8000000000000002
  7
FDASTYLE0
 72
     5
 11
-0.9977850348268369
 21
-23.00000000021853
 31
0.0
100
AcDbText
  0
TEXT
  5
133
330
1F
100
AcDbEntity
  8
0
 62
     7
100
AcDbText
 10
-83.00000608386861
 20
-29.00000000021854
 30
0.0
 40
4.0
  1
ＤＥＰＴＨ　2.5ＭＡＸ
 41
0.6956521739130437
  7
FDASTYLE0
 72
     5
 11
-44.60000608386861
 21
-29.00000000021854
 31
0.0
100
AcDbText
  0
TEXT
  5
134
330
1F
100
AcDbEntity
  8
0
 62
     7
100
AcDbText
 10
-45.60000608386859
 20
-2.860000029583791
 30
0.0
 40
2.6
  1
±0.２
 50
90.0
 41
0.7272727272727272
  7
FDASTYLE0
 72
     5
 11
-45.60000608386859
 21
5.459999970416209
 31
0.0
100
AcDbText
  0
LINE
  5
135
330
1F
100
AcDbEntity
  8
LAYER0012
  6
CONTINUOUS
 62
     3
100
AcDbLine
 10
34.49999062879022
 20
7.000000000218499
 30
0.0
 11
34.49999062879022
 21
4.199999970417132
 31
0.0
  0
LINE
  5
136
330
1F
100
AcDbEntity
  8
LAYER0012
  6
CONTINUOUS
 62
     3
100
AcDbLine
 10
34.49998420223366
 20
2.700000059945886
 30
0.0
 11
34.49998420223366
 21
2.499999970491267
 31
0.0
  0
LINE
  5
137
330
1F
100
AcDbEntity
  8
LAYER0012
  6
CONTINUOUS
 62
     3
100
AcDbLine
 10
34.4999906287902
 20
-12.77499996998012
 30
0.0
 11
34.49999062879022
 21
-12.19999996998013
 31
0.0
  0
LINE
  5
138
330
1F
100
AcDbEntity
  8
LAYER0012
  6
CONTINUOUS
 62
     3
100
AcDbLine
 10
34.49998420223366
 20
-10.70000005950886
 30
0.0
 11
34.49998420223366
 21
-10.49999997005427
 31
0.0
  0
LINE
  5
139
330
1F
100
AcDbEntity
  8
LAYER0012
  6
CONTINUOUS
 62
     3
100
AcDbLine
 10
34.50008870363764
 20
4.775000000219471
 30
0.0
 11
35.29999870363764
 21
4.775000000219471
 31
0.0
  0
LINE
  5
13A
330
1F
100
AcDbEntity
  8
LAYER0012
  6
CONTINUOUS
 62
     3
100
AcDbLine
 10
35.29999246781657
 20
-12.77499999978044
 30
0.0
 11
34.50008870363813
 21
-12.77499999978053
 31
0.0
  0
LINE
  5
13B
330
1F
100
AcDbEntity
  8
LAYER0012
  6
CONTINUOUS
 62
     3
100
AcDbLine
 10
35.49999246781653
 20
4.575000000219482
 30
0.0
 11
35.49999246781653
 21
-12.57499999978044
 31
0.0
  0
LINE
  5
13C
330
1F
100
AcDbEntity
  8
LAYER0012
  6
CONTINUOUS
 62
     3
100
AcDbLine
 10
36.09999246781655
 20
-11.24420259009029
 30
0.0
 11
36.09999246781655
 21
-6.999999999780407
 31
0.0
  0
ARC
  5
13D
330
1F
100
AcDbEntity
  8
LAYER0012
  6
CONTINUOUS
 62
     3
100
AcDbCircle
 10
35.29999246781652
 20
-12.57499999978044
 30
0.0
 40
0.2
100
AcDbArc
 50
270.0000000000124
 51
360.0
  0
ARC
  5
13E
330
1F
100
AcDbEntity
  8
LAYER0012
  6
CONTINUOUS
 62
     3
100
AcDbCircle
 10
35.29999870363764
 20
4.575000000219482
 30
0.0
 40
0.2
100
AcDbArc
 50
0.0000000000010178
 51
90.0
  0
LINE
  5
13F
330
1F
100
AcDbEntity
  8
LAYER0012
  6
CONTINUOUS
 62
     3
100
AcDbLine
 10
35.49999897626232
 20
3.349997631337864
 30
0.0
 11
36.09999246781618
 21
3.244202590527443
 31
0.0
  0
LINE
  5
140
330
1F
100
AcDbEntity
  8
LAYER0007
  6
CONTINUOUS
 62
     3
100
AcDbLine
 10
39.0000060838686
 20
3.000000089748191
 30
0.0
 11
39.0000060838686
 21
2.700000089748208
 31
0.0
  0
LINE
  5
141
330
1F
100
AcDbEntity
  8
LAYER0007
  6
CONTINUOUS
 62
     3
100
AcDbLine
 10
39.0000060838686
 20
-11.00000008931119
 30
0.0
 11
39.0000060838686
 21
-10.70000008931121
 31
0.0
  0
LINE
  5
142
330
1F
100
AcDbEntity
  8
LAYER0007
  6
CONTINUOUS
 62
     3
100
AcDbLine
 10
36.09999246781626
 20
3.000000089748191
 30
0.0
 11
39.0000060838686
 21
3.000000089748191
 31
0.0
  0
LINE
  5
143
330
1F
100
AcDbEntity
  8
LAYER0007
  6
CONTINUOUS
 62
     3
100
AcDbLine
 10
39.0000060838686
 20
2.700000089748208
 30
0.0
 11
37.02061985260268
 21
2.700000089748208
 31
0.0
  0
LINE
  5
144
330
1F
100
AcDbEntity
  8
LAYER0007
  6
CONTINUOUS
 62
     3
100
AcDbLine
 10
36.09999246781626
 20
-11.00000008931119
 30
0.0
 11
39.0000060838686
 21
-11.00000008931119
 31
0.0
  0
LINE
  5
145
330
1F
100
AcDbEntity
  8
LAYER0007
  6
CONTINUOUS
 62
     3
100
AcDbLine
 10
39.0000060838686
 20
-10.70000008931121
 30
0.0
 11
37.02061985260268
 21
-10.70000008931121
 31
0.0
  0
LINE
  5
146
330
1F
100
AcDbEntity
  8
LAYER0005
  6
CONTINUOUS
 62
     3
100
AcDbLine
 10
2.899994965173164
 20
-5.000000089188397
 30
0.0
 11
-1.80000608386859
 21
-5.000000089188397
 31
0.0
  0
LINE
  5
147
330
1F
100
AcDbEntity
  8
LAYER0005
  6
CONTINUOUS
 62
     3
100
AcDbLine
 10
-1.800006083868587
 20
-3.000000089188397
 30
0.0
 11
2.899994965173164
 21
-3.000000089188411
 31
0.0
  0
LINE
  5
148
330
1F
100
AcDbEntity
  8
LAYER0005
  6
CONTINUOUS
 62
     3
100
AcDbLine
 10
4.499994965173169
 20
-4.999999999781487
 30
0.0
 11
4.329994965173167
 21
-4.999999999781487
 31
0.0
  0
LINE
  5
149
330
1F
100
AcDbEntity
  8
LAYER0005
  6
CONTINUOUS
 62
     3
100
AcDbLine
 10
4.329994965173167
 20
-3.000000089188411
 30
0.0
 11
4.499994965173169
 21
-3.000000089188411
 31
0.0
  0
LINE
  5
14A
330
1F
100
AcDbEntity
  8
LAYER0005
  6
CONTINUOUS
 62
     3
100
AcDbLine
 10
-2.000006083868591
 20
-4.800000089188394
 30
0.0
 11
-2.000006083868591
 21
-3.200000084345597
 31
0.0
  0
ARC
  5
14B
330
1F
100
AcDbEntity
  8
LAYER0005
  6
CONTINUOUS
 62
     3
100
AcDbCircle
 10
-1.800006083868587
 20
-3.200000084345597
 30
0.0
 40
0.2
100
AcDbArc
 50
89.99999999999999
 51
180.0
  0
ARC
  5
14C
330
1F
100
AcDbEntity
  8
LAYER0005
  6
CONTINUOUS
 62
     3
100
AcDbCircle
 10
-1.80000608386859
 20
-4.800000089188394
 30
0.0
 40
0.2
100
AcDbArc
 50
180.0
 51
270.0
  0
LINE
  5
14D
330
1F
100
AcDbEntity
  8
LAYER0010
  6
CONTINUOUS
 62
     3
100
AcDbLine
 10
3.899994965173164
 20
-1.999999999781501
 30
0.0
 11
3.899994965173164
 21
-5.999999999781487
 31
0.0
  0
LINE
  5
14E
330
1F
100
AcDbEntity
  8
LAYER0010
  6
CONTINUOUS
 62
     3
100
AcDbLine
 10
4.199994965173165
 20
-5.999999999781487
 30
0.0
 11
4.199994965173165
 21
-1.999999999781501
 31
0.0
  0
LINE
  5
14F
330
1F
100
AcDbEntity
  8
LAYER0009
  6
CONTINUOUS
 62
     3
100
AcDbLine
 10
4.329994965173167
 20
-5.999999999781487
 30
0.0
 11
4.329994965173167
 21
-1.999999999781501
 31
0.0
  0
LINE
  5
150
330
1F
100
AcDbEntity
  8
LAYER0009
  6
CONTINUOUS
 62
     3
100
AcDbLine
 10
4.329994965173167
 20
-1.999999999781501
 30
0.0
 11
3.899994965173164
 21
-1.999999999781501
 31
0.0
  0
LINE
  5
151
330
1F
100
AcDbEntity
  8
LAYER0009
  6
CONTINUOUS
 62
     3
100
AcDbLine
 10
3.799994965173163
 20
-1.999999999781501
 30
0.0
 11
2.999994965173165
 21
-1.999999999781501
 31
0.0
  0
LINE
  5
152
330
1F
100
AcDbEntity
  8
LAYER0009
  6
CONTINUOUS
 62
     3
100
AcDbLine
 10
4.329994965173167
 20
-5.999999999781487
 30
0.0
 11
3.899994965173164
 21
-5.999999999781487
 31
0.0
  0
LINE
  5
153
330
1F
100
AcDbEntity
  8
LAYER0009
  6
CONTINUOUS
 62
     3
100
AcDbLine
 10
3.799994965173159
 20
-5.999999999781487
 30
0.0
 11
2.999994965173165
 21
-5.999999999781487
 31
0.0
  0
INSERT
  5
154
330
1F
100
AcDbEntity
  8
0
  6
CONTINUOUS
100
AcDbBlockReference
  2
DC_GROUP_1
 10
0.0
 20
0.0
 30
0.0
  0
INSERT
  5
155
330
1F
100
AcDbEntity
  8
0
  6
CONTINUOUS
100
AcDbBlockReference
  2
DA_IMAGEDIMGROUP_1
 10
0.0
 20
0.0
 30
0.0
  0
VIEWPORT
  5
4D
330
1B
100
AcDbEntity
 67
     1
  8
0
100
AcDbViewport
 10
0.0
 20
0.4399999999999835
 30
0.0
 40
528.0000365032116
 41
176.6400000013111
 68
     1
 69
     1
1001
ACAD
1000
MVIEW
1002
{
1070
    16
1010
0.0
1020
0.0
1030
0.0
1010
0.0
1020
0.0
1030
1.0
1040
0.0
1040
176.6400000013111
1040
0.0
1040
0.4399999999999835
1040
50.0
1040
0.0
1040
0.0
1070
     0
1070
   100
1070
     0
1070
     1
1070
     0
1070
     0
1070
     0
1070
     0
1040
0.0
1040
0.0
1040
0.0
1040
0.5
1040
0.5
1040
0.0
1040
0.0
1070
     0
1002
{
1002
}
1002
}
  0
ENDSEC
  0
SECTION
  2
OBJECTS
  0
DICTIONARY
  5
C
330
0
100
AcDbDictionary
  3
ACAD_GROUP
350
D
  3
ACAD_LAYOUT
350
1A
  3
ACAD_MLINESTYLE
350
17
  3
ACAD_PLOTSETTINGS
350
19
  3
ACDBHEADERROUNDTRIPXREC
350
156
  0
DICTIONARY
  5
D
102
{ACAD_REACTORS
330
C
102
}
330
C
100
AcDbDictionary
  0
DICTIONARY
  5
1A
102
{ACAD_REACTORS
330
C
102
}
330
C
100
AcDbDictionary
  0
DICTIONARY
  5
17
102
{ACAD_REACTORS
330
C
102
}
330
C
100
AcDbDictionary
  3
STANDARD
350
18
  0
DICTIONARY
  5
19
102
{ACAD_REACTORS
330
C
102
}
330
C
100
AcDbDictionary
  0
DICTIONARY
  5
156
102
{ACAD_REACTORS
330
C
102
}
330
C
100
AcDbDictionary
  3
CEPSNTYPE
350
15F
  3
DIMSTYLEDATA
350
175
  3
FINGERPRINTGUID
350
160
  3
HYPERLINKBASE
350
159
  3
INSUNITS
350
15E
  3
LAYOUTDICT
350
15B
  3
LWETCUNION
350
15D
  3
PLOTSETDICT
350
15C
  3
PSVPSCALE
350
162
  3
PUCSBASE
350
165
  3
PUCSORGBACK
350
16B
  3
PUCSORGBOTTOM
350
167
  3
PUCSORGFRONT
350
16A
  3
PUCSORGLEFT
350
168
  3
PUCSORGRIGHT
350
169
  3
PUCSORGTOP
350
166
  3
PUCSORTHOREF
350
163
  3
PUCSORTHOVIEW
350
164
  3
STYLESHEET
350
15A
  3
TSTACKALIGN
350
157
  3
TSTACKSIZE
350
158
  3
UCSBASE
350
16E
  3
UCSORGBACK
350
174
  3
UCSORGBOTTOM
350
170
  3
UCSORGFRONT
350
173
  3
UCSORGLEFT
350
171
  3
UCSORGRIGHT
350
172
  3
UCSORGTOP
350
16F
  3
UCSORTHOREF
350
16C
  3
UCSORTHOVIEW
350
16D
  3
VERSIONGUID
350
161
  0
MLINESTYLE
  5
18
102
{ACAD_REACTORS
330
17
102
}
330
17
100
AcDbMlineStyle
  2
Standard
 70
     0
  3

 62
   256
 51
90.0
 52
90.0
 71
     2
 49
0.5
 62
   256
  6
BYLAYER
 49
-0.5
 62
   256
  6
BYLAYER
  0
XRECORD
  5
15F
102
{ACAD_REACTORS
330
156
102
}
330
156
100
AcDbXrecord
 90
        0
  0
XRECORD
  5
175
102
{ACAD_REACTORS
330
156
102
}
330
156
100
AcDbXrecord
1000
DSTYLE
1002
{
1070
   171
 70
     2
1070
   143
 40
25.4
1070
   274
 70
     2
1070
   141
 40
0.09
1070
   271
 70
     4
1070
    43
 40
0.38
1070
    44
 40
0.18
1070
   278
 70
    46
1070
    42
 40
0.0625
1070
   147
 40
0.09
1070
    77
 70
     3
1070
   272
 70
     4
1070
    73
 70
     1
1070
   172
 70
     0
1070
    74
 70
     1
1070
   283
 70
     1
1070
   340
340
11
1070
   140
 40
0.18
1070
   284
 70
     0
1070
    78
 70
     0
1002
}
  0
XRECORD
  5
160
102
{ACAD_REACTORS
330
156
102
}
330
156
100
AcDbXrecord
  1
{FD75E0B1-9CD7-40D5-9939-4315171BECD5}
  0
XRECORD
  5
159
102
{ACAD_REACTORS
330
156
102
}
330
156
100
AcDbXrecord
  1

  0
XRECORD
  5
15E
102
{ACAD_REACTORS
330
156
102
}
330
156
100
AcDbXrecord
 90
        4
  0
XRECORD
  5
15B
102
{ACAD_REACTORS
330
156
102
}
330
156
100
AcDbXrecord
340
1A
  0
XRECORD
  5
15D
102
{ACAD_REACTORS
330
156
102
}
330
156
100
AcDbXrecord
 90
    10781
  0
XRECORD
  5
15C
102
{ACAD_REACTORS
330
156
102
}
330
156
100
AcDbXrecord
340
19
  0
XRECORD
  5
162
102
{ACAD_REACTORS
330
156
102
}
330
156
100
AcDbXrecord
 40
0.0
  0
XRECORD
  5
165
102
{ACAD_REACTORS
330
156
102
}
330
156
100
AcDbXrecord
340
0
  0
XRECORD
  5
16B
102
{ACAD_REACTORS
330
156
102
}
330
156
100
AcDbXrecord
 10
0.0
 20
0.0
 30
0.0
  0
XRECORD
  5
167
102
{ACAD_REACTORS
330
156
102
}
330
156
100
AcDbXrecord
 10
0.0
 20
0.0
 30
0.0
  0
XRECORD
  5
16A
102
{ACAD_REACTORS
330
156
102
}
330
156
100
AcDbXrecord
 10
0.0
 20
0.0
 30
0.0
  0
XRECORD
  5
168
102
{ACAD_REACTORS
330
156
102
}
330
156
100
AcDbXrecord
 10
0.0
 20
0.0
 30
0.0
  0
XRECORD
  5
169
102
{ACAD_REACTORS
330
156
102
}
330
156
100
AcDbXrecord
 10
0.0
 20
0.0
 30
0.0
  0
XRECORD
  5
166
102
{ACAD_REACTORS
330
156
102
}
330
156
100
AcDbXrecord
 10
0.0
 20
0.0
 30
0.0
  0
XRECORD
  5
163
102
{ACAD_REACTORS
330
156
102
}
330
156
100
AcDbXrecord
340
0
  0
XRECORD
  5
164
102
{ACAD_REACTORS
330
156
102
}
330
156
100
AcDbXrecord
 70
     0
  0
XRECORD
  5
15A
102
{ACAD_REACTORS
330
156
102
}
330
156
100
AcDbXrecord
  1

  0
XRECORD
  5
157
102
{ACAD_REACTORS
330
156
102
}
330
156
100
AcDbXrecord
 90
        1
  0
XRECORD
  5
158
102
{ACAD_REACTORS
330
156
102
}
330
156
100
AcDbXrecord
 90
       70
  0
XRECORD
  5
16E
102
{ACAD_REACTORS
330
156
102
}
330
156
100
AcDbXrecord
340
0
  0
XRECORD
  5
174
102
{ACAD_REACTORS
330
156
102
}
330
156
100
AcDbXrecord
 10
0.0
 20
0.0
 30
0.0
  0
XRECORD
  5
170
102
{ACAD_REACTORS
330
156
102
}
330
156
100
AcDbXrecord
 10
0.0
 20
0.0
 30
0.0
  0
XRECORD
  5
173
102
{ACAD_REACTORS
330
156
102
}
330
156
100
AcDbXrecord
 10
0.0
 20
0.0
 30
0.0
  0
XRECORD
  5
171
102
{ACAD_REACTORS
330
156
102
}
330
156
100
AcDbXrecord
 10
0.0
 20
0.0
 30
0.0
  0
XRECORD
  5
172
102
{ACAD_REACTORS
330
156
102
}
330
156
100
AcDbXrecord
 10
0.0
 20
0.0
 30
0.0
  0
XRECORD
  5
16F
102
{ACAD_REACTORS
330
156
102
}
330
156
100
AcDbXrecord
 10
0.0
 20
0.0
 30
0.0
  0
XRECORD
  5
16C
102
{ACAD_REACTORS
330
156
102
}
330
156
100
AcDbXrecord
340
0
  0
XRECORD
  5
16D
102
{ACAD_REACTORS
330
156
102
}
330
156
100
AcDbXrecord
 70
     0
  0
XRECORD
  5
161
102
{ACAD_REACTORS
330
156
102
}
330
156
100
AcDbXrecord
  1
{FAEB1C32-E019-11D5-929B-00C0DF256EC4}
  0
ENDSEC
  0
EOF
