  0
SECTION
  2
HEADER
  9
$ACADVER
  1
AC1014
  9
$ACADMAINTVER
 70
     9
  9
$DWGCODEPAGE
  3
ANSI_932
  9
$INSBASE
 10
0.0
 20
0.0
 30
0.0
  9
$EXTMIN
 10
-133.2
 20
-41.7
 30
0.0
  9
$EXTMAX
 10
133.2
 20
35.1
 30
0.0
  9
$LIMMIN
 10
-74.25
 20
-52.5
  9
$LIMMAX
 10
74.25
 20
52.5
  9
$ORTHOMODE
 70
     0
  9
$REGENMODE
 70
     1
  9
$FILLMODE
 70
     1
  9
$QTEXTMODE
 70
     0
  9
$MIRRTEXT
 70
     1
  9
$DRAGMODE
 70
     2
  9
$LTSCALE
 40
0.5
  9
$OSMODE
 70
    37
  9
$ATTMODE
 70
     1
  9
$TEXTSIZE
 40
0.2
  9
$TRACEWID
 40
0.05
  9
$TEXTSTYLE
  7
STANDARD
  9
$CLAYER
  8
0
  9
$CELTYPE
  6
BYLAYER
  9
$CECOLOR
 62
   256
  9
$CELTSCALE
 40
1.0
  9
$DELOBJ
 70
     1
  9
$DISPSILH
 70
     0
  9
$DIMSCALE
 40
1.0
  9
$DIMASZ
 40
1.25
  9
$DIMEXO
 40
0.0625
  9
$DIMDLI
 40
0.38
  9
$DIMRND
 40
0.0
  9
$DIMDLE
 40
0.0
  9
$DIMEXE
 40
0.18
  9
$DIMTP
 40
0.0
  9
$DIMTM
 40
0.0
  9
$DIMTXT
 40
0.18
  9
$DIMCEN
 40
0.09
  9
$DIMTSZ
 40
0.0
  9
$DIMTOL
 70
     0
  9
$DIMLIM
 70
     0
  9
$DIMTIH
 70
     1
  9
$DIMTOH
 70
     1
  9
$DIMSE1
 70
     0
  9
$DIMSE2
 70
     0
  9
$DIMTAD
 70
     3
  9
$DIMZIN
 70
     0
  9
$DIMBLK
  1

  9
$DIMASO
 70
     1
  9
$DIMSHO
 70
     1
  9
$DIMPOST
  1

  9
$DIMAPOST
  1

  9
$DIMALT
 70
     0
  9
$DIMALTD
 70
     2
  9
$DIMALTF
 40
25.4
  9
$DIMLFAC
 40
1.0
  9
$DIMTOFL
 70
     0
  9
$DIMTVP
 40
0.0
  9
$DIMTIX
 70
     0
  9
$DIMSOXD
 70
     0
  9
$DIMSAH
 70
     0
  9
$DIMBLK1
  1

  9
$DIMBLK2
  1

  9
$DIMSTYLE
  2
STANDARD
  9
$DIMCLRD
 70
     0
  9
$DIMCLRE
 70
     0
  9
$DIMCLRT
 70
     0
  9
$DIMTFAC
 40
1.0
  9
$DIMGAP
 40
0.09
  9
$DIMJUST
 70
     0
  9
$DIMSD1
 70
     0
  9
$DIMSD2
 70
     0
  9
$DIMTOLJ
 70
     1
  9
$DIMTZIN
 70
     0
  9
$DIMALTZ
 70
     0
  9
$DIMALTTZ
 70
     0
  9
$DIMFIT
 70
     3
  9
$DIMUPT
 70
     0
  9
$DIMUNIT
 70
     2
  9
$DIMDEC
 70
     4
  9
$DIMTDEC
 70
     4
  9
$DIMALTU
 70
     2
  9
$DIMALTTD
 70
     2
  9
$DIMTXSTY
  7
STANDARD
  9
$DIMAUNIT
 70
     0
  9
$LUNITS
 70
     2
  9
$LUPREC
 70
     4
  9
$SKETCHINC
 40
0.1
  9
$FILLETRAD
 40
0.5
  9
$AUNITS
 70
     0
  9
$AUPREC
 70
     0
  9
$MENU
  1
.
  9
$ELEVATION
 40
0.0
  9
$PELEVATION
 40
0.0
  9
$THICKNESS
 40
0.0
  9
$LIMCHECK
 70
     0
  9
$CHAMFERA
 40
0.5
  9
$CHAMFERB
 40
0.5
  9
$CHAMFERC
 40
1.0
  9
$CHAMFERD
 40
0.0
  9
$SKPOLY
 70
     0
  9
$TDCREATE
 40
2457864.661890058
  9
$TDUPDATE
 40
2457864.66189007
  9
$TDINDWG
 40
0.0000000116
  9
$TDUSRTIMER
 40
0.0000000116
  9
$USRTIMER
 70
     1
  9
$ANGBASE
 50
0.0
  9
$ANGDIR
 70
     0
  9
$PDMODE
 70
     0
  9
$PDSIZE
 40
1.0
  9
$PLINEWID
 40
0.0
  9
$COORDS
 70
     1
  9
$SPLFRAME
 70
     0
  9
$SPLINETYPE
 70
     6
  9
$SPLINESEGS
 70
     8
  9
$ATTDIA
 70
     0
  9
$ATTREQ
 70
     1
  9
$HANDLING
 70
     1
  9
$HANDSEED
  5
136
  9
$SURFTAB1
 70
     6
  9
$SURFTAB2
 70
     6
  9
$SURFTYPE
 70
     6
  9
$SURFU
 70
     6
  9
$SURFV
 70
     6
  9
$UCSNAME
  2

  9
$UCSORG
 10
0.0
 20
0.0
 30
0.0
  9
$UCSXDIR
 10
1.0
 20
0.0
 30
0.0
  9
$UCSYDIR
 10
0.0
 20
1.0
 30
0.0
  9
$PUCSNAME
  2

  9
$PUCSORG
 10
0.0
 20
0.0
 30
0.0
  9
$PUCSXDIR
 10
1.0
 20
0.0
 30
0.0
  9
$PUCSYDIR
 10
0.0
 20
1.0
 30
0.0
  9
$USERI1
 70
     0
  9
$USERI2
 70
     0
  9
$USERI3
 70
     0
  9
$USERI4
 70
     0
  9
$USERI5
 70
     0
  9
$USERR1
 40
0.0
  9
$USERR2
 40
0.0
  9
$USERR3
 40
0.0
  9
$USERR4
 40
0.0
  9
$USERR5
 40
0.0
  9
$WORLDVIEW
 70
     1
  9
$SHADEDGE
 70
     3
  9
$SHADEDIF
 70
    70
  9
$TILEMODE
 70
     1
  9
$MAXACTVP
 70
    64
  9
$PINSBASE
 10
0.0
 20
0.0
 30
0.0
  9
$PLIMCHECK
 70
     0
  9
$PEXTMIN
 10
1.000000000000000E+20
 20
1.000000000000000E+20
 30
1.000000000000000E+20
  9
$PEXTMAX
 10
-1.000000000000000E+20
 20
-1.000000000000000E+20
 30
-1.000000000000000E+20
  9
$PLIMMIN
 10
0.0
 20
0.0
  9
$PLIMMAX
 10
12.0
 20
9.0
  9
$UNITMODE
 70
     0
  9
$VISRETAIN
 70
     0
  9
$PLINEGEN
 70
     1
  9
$PSLTSCALE
 70
     0
  9
$TREEDEPTH
 70
  3020
  9
$PICKSTYLE
 70
     1
  9
$CMLSTYLE
  2
STANDARD
  9
$CMLJUST
 70
     0
  9
$CMLSCALE
 40
1.0
  9
$PROXYGRAPHICS
 70
     0
  9
$MEASUREMENT
 70
     1
  0
ENDSEC
  0
SECTION
  2
CLASSES
  0
CLASS
  1
ACDBDICTIONARYWDFLT
  2
AcDbDictionaryWithDefault
  3
ObjectDBX Classes
 90
        0
280
     0
281
     0
  0
CLASS
  1
XRECORD
  2
AcDbXrecord
  3
AutoCAD 2000
 90
        0
280
     0
281
     0
  0
CLASS
  1
LWPOLYLINE
  2
AcDbPolyline
  3
AutoCAD 2000
 90
        0
280
     0
281
     1
  0
CLASS
  1
HATCH
  2
AcDbHatch
  3
AutoCAD 2000
 90
        0
280
     0
281
     1
  0
CLASS
  1
ACDBPLACEHOLDER
  2
AcDbPlaceHolder
  3
ObjectDBX Classes
 90
        0
280
     0
281
     0
  0
CLASS
  1
LAYOUT
  2
AcDbLayout
  3
ObjectDBX Classes
 90
        0
280
     0
281
     0
  0
ENDSEC
  0
SECTION
  2
TABLES
  0
TABLE
  2
VPORT
  5
8
330
0
100
AcDbSymbolTable
 70
     1
  0
VPORT
  5
29
330
8
100
AcDbSymbolTableRecord
100
AcDbViewportTableRecord
  2
*ACTIVE
 70
     0
 10
0.0
 20
0.0
 11
1.0
 21
1.0
 12
0.0
 22
0.0
 13
0.0
 23
0.0
 14
0.5
 24
0.5
 15
0.5
 25
0.5
 16
0.0
 26
0.0
 36
1.0
 17
-0.0000000000000036
 27
3.300000000000001
 37
0.0
 40
26.112
 41
3.468749999999999
 42
50.0
 43
0.0
 44
0.0
 50
0.0
 51
0.0
 71
     0
 72
  1000
 73
     1
 74
     1
 75
     0
 76
     0
 77
     0
 78
     0
  0
ENDTAB
  0
TABLE
  2
LTYPE
  5
5
330
0
100
AcDbSymbolTable
 70
    28
  0
LTYPE
  5
14
330
5
100
AcDbSymbolTableRecord
100
AcDbLinetypeTableRecord
  2
BYBLOCK
 70
     0
  3

 72
    65
 73
     0
 40
0.0
  0
LTYPE
  5
15
330
5
100
AcDbSymbolTableRecord
100
AcDbLinetypeTableRecord
  2
BYLAYER
 70
     0
  3

 72
    65
 73
     0
 40
0.0
  0
LTYPE
  5
16
330
5
100
AcDbSymbolTableRecord
100
AcDbLinetypeTableRecord
  2
CONTINUOUS
 70
     0
  3
Solid line
 72
    65
 73
     0
 40
0.0
  0
LTYPE
  5
2B
330
5
100
AcDbSymbolTableRecord
100
AcDbLinetypeTableRecord
  2
HIDDENX2
 70
     0
  3
CADPAC LINETYPE
 72
    65
 73
     2
 40
4.525862068965466
 49
3.3943965517241
 74
     0
 49
-1.131465517241367
 74
     0
  0
LTYPE
  5
2C
330
5
100
AcDbSymbolTableRecord
100
AcDbLinetypeTableRecord
  2
HIDDEN
 70
     0
  3
CADPAC LINETYPE
 72
    65
 73
     2
 40
3.3943965517241
 49
2.262931034482733
 74
     0
 49
-1.131465517241367
 74
     0
  0
LTYPE
  5
2D
330
5
100
AcDbSymbolTableRecord
100
AcDbLinetypeTableRecord
  2
HIDDEN2
 70
     0
  3
CADPAC LINETYPE
 72
    65
 73
     2
 40
2.828663793103416
 49
1.69719827586205
 74
     0
 49
-1.131465517241367
 74
     0
  0
LTYPE
  5
2E
330
5
100
AcDbSymbolTableRecord
100
AcDbLinetypeTableRecord
  2
DASHED
 70
     0
  3
CADPAC LINETYPE
 72
    65
 73
     2
 40
3.168103448275815
 49
2.262931034482733
 74
     0
 49
-0.9051724137930819
 74
     0
  0
LTYPE
  5
2F
330
5
100
AcDbSymbolTableRecord
100
AcDbLinetypeTableRecord
  2
DASHED2
 70
     0
  3
CADPAC LINETYPE
 72
    65
 73
     2
 40
2.03663793103442
 49
1.357758620689623
 74
     0
 49
-0.6788793103447972
 74
     0
  0
LTYPE
  5
30
330
5
100
AcDbSymbolTableRecord
100
AcDbLinetypeTableRecord
  2
DASHEDX2
 70
     0
  3
CADPAC LINETYPE
 72
    65
 73
     2
 40
5.431034482758548
 49
4.525862068965466
 74
     0
 49
-0.9051724137930819
 74
     0
  0
LTYPE
  5
31
330
5
100
AcDbSymbolTableRecord
100
AcDbLinetypeTableRecord
  2
DOTX2
 70
     0
  3
CADPAC LINETYPE
 72
    65
 73
     2
 40
1.980064655172384
 49
0.0
 74
     0
 49
-1.980064655172384
 74
     0
  0
LTYPE
  5
32
330
5
100
AcDbSymbolTableRecord
100
AcDbLinetypeTableRecord
  2
DOT
 70
     0
  3
CADPAC LINETYPE
 72
    65
 73
     2
 40
1.584051724137908
 49
0.0
 74
     0
 49
-1.584051724137908
 74
     0
  0
LTYPE
  5
33
330
5
100
AcDbSymbolTableRecord
100
AcDbLinetypeTableRecord
  2
DOT2
 70
     0
  3
CADPAC LINETYPE
 72
    65
 73
     2
 40
1.188038793103431
 49
0.0
 74
     0
 49
-1.188038793103431
 74
     0
  0
LTYPE
  5
34
330
5
100
AcDbSymbolTableRecord
100
AcDbLinetypeTableRecord
  2
CENTERX2
 70
     0
  3
CADPAC LINETYPE
 72
    65
 73
     4
 40
6.788793103448199
 49
2.828663793103416
 74
     0
 49
-1.414331896551708
 74
     0
 49
1.131465517241367
 74
     0
 49
-1.414331896551708
 74
     0
  0
LTYPE
  5
35
330
5
100
AcDbSymbolTableRecord
100
AcDbLinetypeTableRecord
  2
CENTER
 70
     0
  3
CADPAC LINETYPE
 72
    65
 73
     4
 40
5.204741379310287
 49
2.262931034482733
 74
     0
 49
-1.131465517241367
 74
     0
 49
0.67887931034482
 74
     0
 49
-1.131465517241367
 74
     0
  0
LTYPE
  5
36
330
5
100
AcDbSymbolTableRecord
100
AcDbLinetypeTableRecord
  2
CENTER2
 70
     0
  3
CADPAC LINETYPE
 72
    65
 73
     4
 40
3.620689655172373
 49
1.69719827586205
 74
     0
 49
-0.8485991379310249
 74
     0
 49
0.2262931034482733
 74
     0
 49
-0.8485991379310249
 74
     0
  0
LTYPE
  5
37
330
5
100
AcDbSymbolTableRecord
100
AcDbLinetypeTableRecord
  2
DASHDOTX2
 70
     0
  3
CADPAC LINETYPE
 72
    65
 73
     4
 40
10.86206896551718
 49
5.431034482758605
 74
     0
 49
-1.810344827586192
 74
     0
 49
1.810344827586192
 74
     0
 49
-1.810344827586192
 74
     0
  0
LTYPE
  5
38
330
5
100
AcDbSymbolTableRecord
100
AcDbLinetypeTableRecord
  2
DASHDOT
 70
     0
  3
CADPAC LINETYPE
 72
    65
 73
     4
 40
5.43103448275852
 49
2.715517241379274
 74
     0
 49
-0.9051724137930819
 74
     0
 49
0.9051724137930819
 74
     0
 49
-0.9051724137930819
 74
     0
  0
LTYPE
  5
39
330
5
100
AcDbSymbolTableRecord
100
AcDbLinetypeTableRecord
  2
DASHDOT2
 70
     0
  3
CADPAC LINETYPE
 72
    65
 73
     4
 40
3.484913793103387
 49
2.036637931034456
 74
     0
 49
-0.6788793103448114
 74
     0
 49
0.0905172413793082
 74
     0
 49
-0.6788793103448114
 74
     0
  0
LTYPE
  5
3A
330
5
100
AcDbSymbolTableRecord
100
AcDbLinetypeTableRecord
  2
DIVIDEX2
 70
     0
  3
CADPAC LINETYPE
 72
    65
 73
     6
 40
14.48275862068957
 49
5.431034482758605
 74
     0
 49
-1.810344827586192
 74
     0
 49
1.810344827586192
 74
     0
 49
-1.810344827586192
 74
     0
 49
1.810344827586192
 74
     0
 49
-1.810344827586192
 74
     0
  0
LTYPE
  5
3B
330
5
100
AcDbSymbolTableRecord
100
AcDbLinetypeTableRecord
  2
DIVIDE
 70
     0
  3
CADPAC LINETYPE
 72
    65
 73
     6
 40
7.241379310344684
 49
2.715517241379274
 74
     0
 49
-0.9051724137930819
 74
     0
 49
0.9051724137930819
 74
     0
 49
-0.9051724137930819
 74
     0
 49
0.9051724137930819
 74
     0
 49
-0.9051724137930819
 74
     0
  0
LTYPE
  5
3C
330
5
100
AcDbSymbolTableRecord
100
AcDbLinetypeTableRecord
  2
DIVIDE2
 70
     0
  3
CADPAC LINETYPE
 72
    65
 73
     6
 40
5.431034482758513
 49
2.036637931034456
 74
     0
 49
-0.6788793103448114
 74
     0
 49
0.6788793103448114
 74
     0
 49
-0.6788793103448114
 74
     0
 49
0.6788793103448114
 74
     0
 49
-0.6788793103448114
 74
     0
  0
LTYPE
  5
3D
330
5
100
AcDbSymbolTableRecord
100
AcDbLinetypeTableRecord
  2
BORDERX2
 70
     0
  3
CADPAC LINETYPE
 72
    65
 73
     6
 40
9.900323275861958
 49
2.828663793103416
 74
     0
 49
-1.414331896551708
 74
     0
 49
2.828663793103416
 74
     0
 49
-1.414331896551708
 74
     0
 49
0.0
 74
     0
 49
-1.414331896551708
 74
     0
  0
LTYPE
  5
3E
330
5
100
AcDbSymbolTableRecord
100
AcDbLinetypeTableRecord
  2
BORDER
 70
     0
  3
CADPAC LINETYPE
 72
    65
 73
     6
 40
7.920258620689566
 49
2.262931034482733
 74
     0
 49
-1.131465517241367
 74
     0
 49
2.262931034482733
 74
     0
 49
-1.131465517241367
 74
     0
 49
0.0
 74
     0
 49
-1.131465517241367
 74
     0
  0
LTYPE
  5
3F
330
5
100
AcDbSymbolTableRecord
100
AcDbLinetypeTableRecord
  2
BORDER2
 70
     0
  3
CADPAC LINETYPE
 72
    65
 73
     6
 40
5.883620689655032
 49
1.810344827586192
 74
     0
 49
-1.131465517241338
 74
     0
 49
0.6788793103447972
 74
     0
 49
-1.131465517241338
 74
     0
 49
0.0
 74
     0
 49
-1.131465517241367
 74
     0
  0
LTYPE
  5
40
330
5
100
AcDbSymbolTableRecord
100
AcDbLinetypeTableRecord
  2
PHANTOMX2
 70
     0
  3
CADPAC LINETYPE
 72
    65
 73
     6
 40
8.485991379310249
 49
2.828663793103416
 74
     0
 49
-1.131465517241367
 74
     0
 49
1.131465517241367
 74
     0
 49
-1.131465517241367
 74
     0
 49
1.131465517241367
 74
     0
 49
-1.131465517241367
 74
     0
  0
LTYPE
  5
41
330
5
100
AcDbSymbolTableRecord
100
AcDbLinetypeTableRecord
  2
PHANTOM
 70
     0
  3
CADPAC LINETYPE
 72
    65
 73
     6
 40
7.015086206896473
 49
2.262931034482733
 74
     0
 49
-1.131465517241367
 74
     0
 49
0.67887931034482
 74
     0
 49
-1.131465517241367
 74
     0
 49
0.67887931034482
 74
     0
 49
-1.131465517241367
 74
     0
  0
LTYPE
  5
42
330
5
100
AcDbSymbolTableRecord
100
AcDbLinetypeTableRecord
  2
PHANTOM2
 70
     0
  3
CADPAC LINETYPE
 72
    65
 73
     6
 40
5.996767241379242
 49
1.69719827586205
 74
     0
 49
-1.131465517241367
 74
     0
 49
0.4525862068965467
 74
     0
 49
-1.131465517241367
 74
     0
 49
0.4525862068965467
 74
     0
 49
-1.131465517241367
 74
     0
  0
LTYPE
  5
43
330
5
100
AcDbSymbolTableRecord
100
AcDbLinetypeTableRecord
  2
ACAD_ISO06W100
 70
     0
  3
CADPAC LINETYPE
 72
    65
 73
     8
 40
11.99353448275835
 49
5.431034482758605
 74
     0
 49
-1.131465517241338
 74
     0
 49
0.6788793103447972
 74
     0
 49
-1.131465517241338
 74
     0
 49
0.6788793103447972
 74
     0
 49
-1.131465517241338
 74
     0
 49
0.6788793103447972
 74
     0
 49
-1.131465517241338
 74
     0
  0
LTYPE
  5
44
330
5
100
AcDbSymbolTableRecord
100
AcDbLinetypeTableRecord
  2
ACAD_ISO13W100
 70
     0
  3
CADPAC LINETYPE
 72
    65
 73
     8
 40
9.051724137930933
 49
2.262931034482733
 74
     0
 49
-1.131465517241367
 74
     0
 49
2.262931034482733
 74
     0
 49
-1.131465517241367
 74
     0
 49
0.0
 74
     0
 49
-1.131465517241367
 74
     0
 49
0.0
 74
     0
 49
-1.131465517241367
 74
     0
  0
LTYPE
  5
45
330
5
100
AcDbSymbolTableRecord
100
AcDbLinetypeTableRecord
  2
ACAD_ISO14W100
 70
     0
  3
CADPAC LINETYPE
 72
    65
 73
     8
 40
6.788793103448199
 49
2.262931034482733
 74
     0
 49
-1.131465517241367
 74
     0
 49
0.0
 74
     0
 49
-1.131465517241367
 74
     0
 49
0.0
 74
     0
 49
-1.131465517241367
 74
     0
 49
0.0
 74
     0
 49
-1.131465517241367
 74
     0
  0
ENDTAB
  0
TABLE
  2
LAYER
  5
2
330
0
100
AcDbSymbolTable
 70
     1
  0
LAYER
  5
10
330
2
100
AcDbSymbolTableRecord
100
AcDbLayerTableRecord
  2
0
 70
     0
 62
     7
  6
CONTINUOUS
  0
ENDTAB
  0
TABLE
  2
STYLE
  5
3
330
0
100
AcDbSymbolTable
 70
     2
  0
STYLE
  5
11
330
3
100
AcDbSymbolTableRecord
100
AcDbTextStyleTableRecord
  2
STANDARD
 70
     0
 40
0.0
 41
1.0
 50
0.0
 71
     0
 42
0.2
  3
txt
  4

  0
STYLE
  5
72
330
3
100
AcDbSymbolTableRecord
100
AcDbTextStyleTableRecord
  2
FDASTYLE0
 70
     0
 40
2.0
 41
0.7272727272727269
 50
0.0
 71
     0
 42
0.2
  3
txt.shx
  4
bigfont
  0
ENDTAB
  0
TABLE
  2
VIEW
  5
6
330
0
100
AcDbSymbolTable
 70
     0
  0
ENDTAB
  0
TABLE
  2
UCS
  5
7
330
0
100
AcDbSymbolTable
 70
     0
  0
ENDTAB
  0
TABLE
  2
APPID
  5
9
330
0
100
AcDbSymbolTable
 70
     2
  0
APPID
  5
12
330
9
100
AcDbSymbolTableRecord
100
AcDbRegAppTableRecord
  2
ACAD
 70
     0
  0
APPID
  5
2A
330
9
100
AcDbSymbolTableRecord
100
AcDbRegAppTableRecord
  2
DAFUSIONOUT
 70
     0
  0
ENDTAB
  0
TABLE
  2
DIMSTYLE
  5
A
330
0
100
AcDbSymbolTable
 70
     1
  0
DIMSTYLE
105
27
330
A
100
AcDbSymbolTableRecord
100
AcDbDimStyleTableRecord
  2
STANDARD
 70
     0
  3

  4

  5

  6

  7

 40
1.0
 41
0.18
 42
0.0625
 43
0.38
 44
0.18
 45
0.0
 46
0.0
 47
0.0
 48
0.0
140
0.18
141
0.09
142
0.0
143
25.4
144
1.0
145
0.0
146
1.0
147
0.09
 71
     0
 72
     0
 73
     1
 74
     1
 75
     0
 76
     0
 77
     0
 78
     0
170
     0
171
     2
172
     0
173
     0
174
     0
175
     0
176
     0
177
     0
178
     0
270
     2
271
     4
272
     4
273
     2
274
     2
340
11
275
     0
280
     0
281
     0
282
     0
283
     1
284
     0
285
     0
286
     0
287
     3
288
     0
  0
ENDTAB
  0
TABLE
  2
BLOCK_RECORD
  5
1
330
0
100
AcDbSymbolTable
 70
    12
  0
BLOCK_RECORD
  5
1F
330
1
100
AcDbSymbolTableRecord
100
AcDbBlockTableRecord
  2
*MODEL_SPACE
  0
BLOCK_RECORD
  5
1B
330
1
100
AcDbSymbolTableRecord
100
AcDbBlockTableRecord
  2
*PAPER_SPACE
  0
BLOCK_RECORD
  5
47
330
1
100
AcDbSymbolTableRecord
100
AcDbBlockTableRecord
  2
DA_IMAGEDIMGROUP_1
  0
BLOCK_RECORD
  5
4A
330
1
100
AcDbSymbolTableRecord
100
AcDbBlockTableRecord
  2
DA_IMAGEDIMGROUP_2
  0
BLOCK_RECORD
  5
4D
330
1
100
AcDbSymbolTableRecord
100
AcDbBlockTableRecord
  2
DA_IMAGEDIMGROUP_3
  0
BLOCK_RECORD
  5
50
330
1
100
AcDbSymbolTableRecord
100
AcDbBlockTableRecord
  2
DA_IMAGEDIMGROUP_4
  0
BLOCK_RECORD
  5
53
330
1
100
AcDbSymbolTableRecord
100
AcDbBlockTableRecord
  2
DA_IMAGEDIMGROUP_5
  0
BLOCK_RECORD
  5
56
330
1
100
AcDbSymbolTableRecord
100
AcDbBlockTableRecord
  2
DA_IMAGEDIMGROUP_6
  0
BLOCK_RECORD
  5
59
330
1
100
AcDbSymbolTableRecord
100
AcDbBlockTableRecord
  2
DC_GROUP_1
  0
BLOCK_RECORD
  5
5C
330
1
100
AcDbSymbolTableRecord
100
AcDbBlockTableRecord
  2
DC_GROUP_2
  0
BLOCK_RECORD
  5
5F
330
1
100
AcDbSymbolTableRecord
100
AcDbBlockTableRecord
  2
DA_IMAGEDIMGROUP_7
  0
BLOCK_RECORD
  5
62
330
1
100
AcDbSymbolTableRecord
100
AcDbBlockTableRecord
  2
DC_GROUP_3
  0
BLOCK_RECORD
  5
69
330
1
100
AcDbSymbolTableRecord
100
AcDbBlockTableRecord
  2
_OPEN30
  0
ENDTAB
  0
ENDSEC
  0
SECTION
  2
BLOCKS
  0
BLOCK
  5
20
330
1F
100
AcDbEntity
  8
0
100
AcDbBlockBegin
  2
*MODEL_SPACE
 70
     0
 71
     0
 10
0.0
 20
0.0
 30
0.0
  3
*MODEL_SPACE
  1

  0
ENDBLK
  5
21
330
1F
100
AcDbEntity
  8
0
100
AcDbBlockEnd
  0
BLOCK
  5
1C
330
1B
100
AcDbEntity
 67
     1
  8
0
100
AcDbBlockBegin
  2
*PAPER_SPACE
 70
     0
 71
     0
 10
0.0
 20
0.0
 30
0.0
  3
*PAPER_SPACE
  1

  0
ENDBLK
  5
1D
330
1B
100
AcDbEntity
 67
     1
  8
0
100
AcDbBlockEnd
  0
BLOCK
  5
48
330
47
100
AcDbEntity
  8
0
100
AcDbBlockBegin
  2
DA_IMAGEDIMGROUP_1
 70
     0
 71
     0
 10
0.0
 20
0.0
 30
0.0
  3
DA_IMAGEDIMGROUP_1
  1

  0
LINE
  5
65
330
47
100
AcDbEntity
  8
0
  6
CONTINUOUS
 62
     9
100
AcDbLine
 10
-13.69999999999999
 20
-0.4999999999999991
 30
0.0
 11
-17.89999999999999
 21
-0.4999999999999991
 31
0.0
  0
LINE
  5
66
330
47
100
AcDbEntity
  8
0
  6
CONTINUOUS
 62
     9
100
AcDbLine
 10
-13.69999999999999
 20
0.499999999999998
 30
0.0
 11
-17.89999999999999
 21
0.499999999999998
 31
0.0
  0
LINE
  5
67
330
47
100
AcDbEntity
  8
0
  6
CONTINUOUS
 62
     9
100
AcDbLine
 10
-17.39999999999999
 20
-0.4999999999999991
 30
0.0
 11
-17.39999999999999
 21
0.499999999999998
 31
0.0
  0
LINE
  5
68
330
47
100
AcDbEntity
  8
0
  6
CONTINUOUS
 62
     9
100
AcDbLine
 10
-17.39999999999999
 20
15.94
 30
0.0
 11
-17.39999999999999
 21
0.499999999999998
 31
0.0
  0
INSERT
  5
6F
330
47
100
AcDbEntity
  8
0
 62
     9
100
AcDbBlockReference
  2
_OPEN30
 10
-17.39999999999999
 20
0.499999999999998
 30
0.0
 41
1.500001393912182
 42
1.499994636989232
 50
270.0
  0
LINE
  5
70
330
47
100
AcDbEntity
  8
0
  6
CONTINUOUS
 62
     9
100
AcDbLine
 10
-17.39999999999999
 20
-2.999999999999999
 30
0.0
 11
-17.39999999999999
 21
-0.4999999999999991
 31
0.0
  0
INSERT
  5
71
330
47
100
AcDbEntity
  8
0
 62
     9
100
AcDbBlockReference
  2
_OPEN30
 10
-17.39999999999999
 20
-0.4999999999999991
 30
0.0
 41
1.500001393912182
 42
1.499994636989232
 50
90.0
  0
TEXT
  5
73
330
47
100
AcDbEntity
  8
0
 62
     7
100
AcDbText
 10
-17.89999999999999
 20
5.500000000000001
 30
0.0
 40
2.0
  1
φ1
 50
90.0
 41
0.7272727272727269
  7
FDASTYLE0
 72
     5
 11
-17.89999999999999
 21
8.699999999999999
 31
0.0
100
AcDbText
  0
TEXT
  5
74
330
47
100
AcDbEntity
  8
0
 62
     7
100
AcDbText
 10
-19.19999999999999
 20
9.199999999999999
 30
0.0
 40
1.3
  1
 0
 50
90.0
 41
0.8000000000000007
  7
FDASTYLE0
 72
     5
 11
-19.19999999999999
 21
11.28
 31
0.0
100
AcDbText
  0
TEXT
  5
75
330
47
100
AcDbEntity
  8
0
 62
     7
100
AcDbText
 10
-17.79999999999999
 20
9.199999999999999
 30
0.0
 40
1.3
  1
-0.005
 50
90.0
 41
0.7999999999999999
  7
FDASTYLE0
 72
     5
 11
-17.79999999999999
 21
15.44
 31
0.0
100
AcDbText
  0
ENDBLK
  5
49
330
47
100
AcDbEntity
  8
0
100
AcDbBlockEnd
  0
BLOCK
  5
4B
330
4A
100
AcDbEntity
  8
0
100
AcDbBlockBegin
  2
DA_IMAGEDIMGROUP_2
 70
     0
 71
     0
 10
0.0
 20
0.0
 30
0.0
  3
DA_IMAGEDIMGROUP_2
  1

  0
LINE
  5
76
330
4A
100
AcDbEntity
  8
0
  6
CONTINUOUS
 62
     9
100
AcDbLine
 10
-10.5
 20
-2.999999999999999
 30
0.0
 11
-21.89999999999999
 21
-2.999999999999999
 31
0.0
  0
LINE
  5
77
330
4A
100
AcDbEntity
  8
0
  6
CONTINUOUS
 62
     9
100
AcDbLine
 10
-10.5
 20
3.000000000000001
 30
0.0
 11
-21.89999999999999
 21
3.000000000000001
 31
0.0
  0
LINE
  5
78
330
4A
100
AcDbEntity
  8
0
  6
CONTINUOUS
 62
     9
100
AcDbLine
 10
-21.39999999999999
 20
-2.999999999999999
 30
0.0
 11
-21.39999999999999
 21
3.000000000000001
 31
0.0
  0
LINE
  5
79
330
4A
100
AcDbEntity
  8
0
  6
CONTINUOUS
 62
     9
100
AcDbLine
 10
-21.39999999999999
 20
15.94
 30
0.0
 11
-21.39999999999999
 21
3.000000000000001
 31
0.0
  0
INSERT
  5
7A
330
4A
100
AcDbEntity
  8
0
 62
     9
100
AcDbBlockReference
  2
_OPEN30
 10
-21.39999999999999
 20
3.000000000000001
 30
0.0
 41
1.500001393912182
 42
1.499994636989232
 50
270.0
  0
LINE
  5
7B
330
4A
100
AcDbEntity
  8
0
  6
CONTINUOUS
 62
     9
100
AcDbLine
 10
-21.39999999999999
 20
-5.499999999999999
 30
0.0
 11
-21.39999999999999
 21
-2.999999999999999
 31
0.0
  0
INSERT
  5
7C
330
4A
100
AcDbEntity
  8
0
 62
     9
100
AcDbBlockReference
  2
_OPEN30
 10
-21.39999999999999
 20
-2.999999999999999
 30
0.0
 41
1.500001393912182
 42
1.499994636989232
 50
90.0
  0
TEXT
  5
7D
330
4A
100
AcDbEntity
  8
0
 62
     7
100
AcDbText
 10
-21.89999999999999
 20
5.500000000000001
 30
0.0
 40
2.0
  1
φ6
 50
90.0
 41
0.7272727272727269
  7
FDASTYLE0
 72
     5
 11
-21.89999999999999
 21
8.699999999999999
 31
0.0
100
AcDbText
  0
TEXT
  5
7E
330
4A
100
AcDbEntity
  8
0
 62
     7
100
AcDbText
 10
-23.19999999999999
 20
9.199999999999999
 30
0.0
 40
1.3
  1
-0.015
 50
90.0
 41
0.7999999999999997
  7
FDASTYLE0
 72
     5
 11
-23.19999999999999
 21
15.44
 31
0.0
100
AcDbText
  0
TEXT
  5
7F
330
4A
100
AcDbEntity
  8
0
 62
     7
100
AcDbText
 10
-21.79999999999999
 20
9.199999999999999
 30
0.0
 40
1.3
  1
-0.030
 50
90.0
 41
0.7999999999999999
  7
FDASTYLE0
 72
     5
 11
-21.79999999999999
 21
15.44
 31
0.0
100
AcDbText
  0
ENDBLK
  5
4C
330
4A
100
AcDbEntity
  8
0
100
AcDbBlockEnd
  0
BLOCK
  5
4E
330
4D
100
AcDbEntity
  8
0
100
AcDbBlockBegin
  2
DA_IMAGEDIMGROUP_3
 70
     0
 71
     0
 10
0.0
 20
0.0
 30
0.0
  3
DA_IMAGEDIMGROUP_3
  1

  0
LINE
  5
80
330
4D
100
AcDbEntity
  8
0
  6
CONTINUOUS
 62
     9
100
AcDbLine
 10
-10.0
 20
-4.999999999999999
 30
0.0
 11
-25.89999999999999
 21
-4.999999999999999
 31
0.0
  0
LINE
  5
81
330
4D
100
AcDbEntity
  8
0
  6
CONTINUOUS
 62
     9
100
AcDbLine
 10
-10.0
 20
5.000000000000001
 30
0.0
 11
-25.89999999999999
 21
5.000000000000001
 31
0.0
  0
LINE
  5
82
330
4D
100
AcDbEntity
  8
0
  6
CONTINUOUS
 62
     9
100
AcDbLine
 10
-25.39999999999999
 20
-4.999999999999999
 30
0.0
 11
-25.39999999999999
 21
5.000000000000001
 31
0.0
  0
INSERT
  5
83
330
4D
100
AcDbEntity
  8
0
 62
     9
100
AcDbBlockReference
  2
_OPEN30
 10
-25.39999999999999
 20
-4.999999999999999
 30
0.0
 41
1.500001393912182
 42
1.499994636989232
 50
270.0
  0
INSERT
  5
84
330
4D
100
AcDbEntity
  8
0
 62
     9
100
AcDbBlockReference
  2
_OPEN30
 10
-25.39999999999999
 20
5.000000000000001
 30
0.0
 41
1.500001393912182
 42
1.499994636989232
 50
90.0
  0
TEXT
  5
85
330
4D
100
AcDbEntity
  8
0
 62
     7
100
AcDbText
 10
-25.89999999999999
 20
-4.730000000000001
 30
0.0
 40
2.0
  1
φ10
 50
90.0
 41
0.7500000000000007
  7
FDASTYLE0
 72
     5
 11
-25.89999999999999
 21
0.0700000000000029
 31
0.0
100
AcDbText
  0
TEXT
  5
86
330
4D
100
AcDbEntity
  8
0
 62
     7
100
AcDbText
 10
-27.19999999999999
 20
0.570000000000003
 30
0.0
 40
1.3
  1
±0.2
 50
90.0
 41
0.7619047619047619
  7
FDASTYLE0
 72
     5
 11
-27.19999999999999
 21
4.730000000000003
 31
0.0
100
AcDbText
  0
ENDBLK
  5
4F
330
4D
100
AcDbEntity
  8
0
100
AcDbBlockEnd
  0
BLOCK
  5
51
330
50
100
AcDbEntity
  8
0
100
AcDbBlockBegin
  2
DA_IMAGEDIMGROUP_4
 70
     0
 71
     0
 10
0.0
 20
0.0
 30
0.0
  3
DA_IMAGEDIMGROUP_4
  1

  0
LINE
  5
87
330
50
100
AcDbEntity
  8
0
  6
CONTINUOUS
 62
     9
100
AcDbLine
 10
-11.8
 20
3.250000000000001
 30
0.0
 11
-11.8
 21
9.5
 31
0.0
  0
LINE
  5
88
330
50
100
AcDbEntity
  8
0
  6
CONTINUOUS
 62
     9
100
AcDbLine
 10
-9.600000000000001
 20
5.400000000000007
 30
0.0
 11
-9.600000000000001
 21
9.5
 31
0.0
  0
LINE
  5
89
330
50
100
AcDbEntity
  8
0
  6
CONTINUOUS
 62
     9
100
AcDbLine
 10
-11.8
 20
9.0
 30
0.0
 11
-9.600000000000001
 21
9.0
 31
0.0
  0
LINE
  5
8A
330
50
100
AcDbEntity
  8
0
  6
CONTINUOUS
 62
     9
100
AcDbLine
 10
-2.35111
 20
9.0
 30
0.0
 11
-9.600000000000001
 21
9.0
 31
0.0
  0
INSERT
  5
8B
330
50
100
AcDbEntity
  8
0
 62
     9
100
AcDbBlockReference
  2
_OPEN30
 10
-9.600000000000001
 20
9.0
 30
0.0
 41
1.500001393912182
 42
1.499994636989232
 50
180.0
  0
LINE
  5
8C
330
50
100
AcDbEntity
  8
0
  6
CONTINUOUS
 62
     9
100
AcDbLine
 10
-14.3
 20
9.0
 30
0.0
 11
-11.8
 21
9.0
 31
0.0
  0
INSERT
  5
8D
330
50
100
AcDbEntity
  8
0
 62
     9
100
AcDbBlockReference
  2
_OPEN30
 10
-11.8
 20
9.0
 30
0.0
 41
1.500001393912182
 42
1.499994636989232
 50
360.0
  0
TEXT
  5
8E
330
50
100
AcDbEntity
  8
0
 62
     7
100
AcDbText
 10
-7.651110000000001
 20
9.5
 30
0.0
 40
2.0
  1
2.2
 41
0.8000000000000002
  7
FDASTYLE0
 72
     5
 11
-2.85111
 21
9.5
 31
0.0
100
AcDbText
  0
ENDBLK
  5
52
330
50
100
AcDbEntity
  8
0
100
AcDbBlockEnd
  0
BLOCK
  5
54
330
53
100
AcDbEntity
  8
0
100
AcDbBlockBegin
  2
DA_IMAGEDIMGROUP_5
 70
     0
 71
     0
 10
0.0
 20
0.0
 30
0.0
  3
DA_IMAGEDIMGROUP_5
  1

  0
LINE
  5
8F
330
53
100
AcDbEntity
  8
0
  6
CONTINUOUS
 62
     9
100
AcDbLine
 10
-13.39999999999999
 20
0.7999999999999981
 30
0.0
 11
-13.39999999999999
 21
13.5
 31
0.0
  0
LINE
  5
90
330
53
100
AcDbEntity
  8
0
  6
CONTINUOUS
 62
     9
100
AcDbLine
 10
-9.600000000000001
 20
5.400000000000007
 30
0.0
 11
-9.600000000000001
 21
13.5
 31
0.0
  0
LINE
  5
91
330
53
100
AcDbEntity
  8
0
  6
CONTINUOUS
 62
     9
100
AcDbLine
 10
-13.39999999999999
 20
13.0
 30
0.0
 11
-9.600000000000001
 21
13.0
 31
0.0
  0
LINE
  5
92
330
53
100
AcDbEntity
  8
0
  6
CONTINUOUS
 62
     9
100
AcDbLine
 10
7.399999999999999
 20
4.750000000000001
 30
0.0
 11
7.399999999999999
 21
13.5
 31
0.0
  0
LINE
  5
93
330
53
100
AcDbEntity
  8
0
  6
CONTINUOUS
 62
     9
100
AcDbLine
 10
29.4
 20
3.990000000000003
 30
0.0
 11
29.4
 21
13.5
 31
0.0
  0
LINE
  5
94
330
53
100
AcDbEntity
  8
0
  6
CONTINUOUS
 62
     9
100
AcDbLine
 10
-9.600000000000001
 20
13.0
 30
0.0
 11
7.399999999999999
 21
13.0
 31
0.0
  0
INSERT
  5
95
330
53
100
AcDbEntity
  8
0
 62
     9
100
AcDbBlockReference
  2
_OPEN30
 10
-9.600000000000001
 20
13.0
 30
0.0
 41
1.500001393912182
 42
1.499994636989232
 50
180.0
  0
INSERT
  5
96
330
53
100
AcDbEntity
  8
0
 62
     9
100
AcDbBlockReference
  2
_OPEN30
 10
7.399999999999999
 20
13.0
 30
0.0
 41
1.500001393912182
 42
1.499994636989232
 50
360.0
  0
LINE
  5
97
330
53
100
AcDbEntity
  8
0
  6
CONTINUOUS
 62
     9
100
AcDbLine
 10
7.399999999999999
 20
13.0
 30
0.0
 11
29.4
 21
13.0
 31
0.0
  0
INSERT
  5
98
330
53
100
AcDbEntity
  8
0
 62
     9
100
AcDbBlockReference
  2
_OPEN30
 10
7.399999999999999
 20
13.0
 30
0.0
 41
1.500001393912182
 42
1.499994636989232
 50
180.0
  0
INSERT
  5
99
330
53
100
AcDbEntity
  8
0
 62
     9
100
AcDbBlockReference
  2
_OPEN30
 10
29.4
 20
13.0
 30
0.0
 41
1.500001393912182
 42
1.499994636989232
 50
360.0
  0
LINE
  5
9A
330
53
100
AcDbEntity
  8
0
  6
CONTINUOUS
 62
     9
100
AcDbLine
 10
-15.89999999999999
 20
13.0
 30
0.0
 11
-13.39999999999999
 21
13.0
 31
0.0
  0
INSERT
  5
9B
330
53
100
AcDbEntity
  8
0
 62
     9
100
AcDbBlockReference
  2
_OPEN30
 10
-13.39999999999999
 20
13.0
 30
0.0
 41
1.500001393912182
 42
1.499994636989232
 50
360.0
  0
TEXT
  5
9C
330
53
100
AcDbEntity
  8
0
 62
     7
100
AcDbText
 10
-13.9
 20
13.5
 30
0.0
 40
2.0
  1
3.8
 41
0.8000000000000002
  7
FDASTYLE0
 72
     5
 11
-9.099999999999994
 21
13.5
 31
0.0
100
AcDbText
  0
TEXT
  5
9D
330
53
100
AcDbEntity
  8
0
 62
     7
100
AcDbText
 10
-2.700000000000002
 20
13.5
 30
0.0
 40
2.0
  1
17
 41
0.8
  7
FDASTYLE0
 72
     5
 11
0.4999999999999987
 21
13.5
 31
0.0
100
AcDbText
  0
TEXT
  5
9E
330
53
100
AcDbEntity
  8
0
 62
     7
100
AcDbText
 10
15.692
 20
13.5
 30
0.0
 40
2.0
  1
50
 41
0.8000000000000003
  7
FDASTYLE0
 72
     5
 11
18.892
 21
13.5
 31
0.0
100
AcDbText
  0
TEXT
  5
9F
330
53
100
AcDbEntity
  8
0
 62
     7
100
AcDbText
 10
19.392
 20
14.8
 30
0.0
 40
1.3
  1
±5
 41
0.7272727272727279
  7
FDASTYLE0
 72
     5
 11
21.472
 21
14.8
 31
0.0
100
AcDbText
  0
ENDBLK
  5
55
330
53
100
AcDbEntity
  8
0
100
AcDbBlockEnd
  0
BLOCK
  5
57
330
56
100
AcDbEntity
  8
0
100
AcDbBlockBegin
  2
DA_IMAGEDIMGROUP_6
 70
     0
 71
     0
 10
0.0
 20
0.0
 30
0.0
  3
DA_IMAGEDIMGROUP_6
  1

  0
LINE
  5
A0
330
56
100
AcDbEntity
  8
0
  6
CONTINUOUS
 62
     9
100
AcDbLine
 10
29.4
 20
3.990000000000003
 30
0.0
 11
29.4
 21
9.5
 31
0.0
  0
LINE
  5
A1
330
56
100
AcDbEntity
  8
0
  6
CONTINUOUS
 62
     9
100
AcDbLine
 10
24.4
 20
4.260000000000006
 30
0.0
 11
24.4
 21
9.5
 31
0.0
  0
LINE
  5
A2
330
56
100
AcDbEntity
  8
0
  6
CONTINUOUS
 62
     9
100
AcDbLine
 10
24.4
 20
9.0
 30
0.0
 11
29.4
 21
9.0
 31
0.0
  0
INSERT
  5
A3
330
56
100
AcDbEntity
  8
0
 62
     9
100
AcDbBlockReference
  2
_OPEN30
 10
24.4
 20
9.0
 30
0.0
 41
1.500001393912182
 42
1.499994636989232
 50
180.0
  0
INSERT
  5
A4
330
56
100
AcDbEntity
  8
0
 62
     9
100
AcDbBlockReference
  2
_OPEN30
 10
29.4
 20
9.0
 30
0.0
 41
1.500001393912182
 42
1.499994636989232
 50
360.0
  0
TEXT
  5
A5
330
56
100
AcDbEntity
  8
0
 62
     7
100
AcDbText
 10
26.09999999999999
 20
9.5
 30
0.0
 40
2.0
  1
5
 41
0.8000000000000007
  7
FDASTYLE0
 72
     5
 11
27.7
 21
9.5
 31
0.0
100
AcDbText
  0
ENDBLK
  5
58
330
56
100
AcDbEntity
  8
0
100
AcDbBlockEnd
  0
BLOCK
  5
5A
330
59
100
AcDbEntity
  8
0
100
AcDbBlockBegin
  2
DC_GROUP_1
 70
     0
 71
     0
 10
0.0
 20
0.0
 30
0.0
  3
DC_GROUP_1
  1

  0
LINE
  5
A6
330
59
100
AcDbEntity
  8
0
  6
CONTINUOUS
 62
     9
100
AcDbLine
 10
9.396638250752874
 20
3.655579403926087
 30
0.0
 11
11.9
 21
9.0
 31
0.0
  0
INSERT
  5
A7
330
59
100
AcDbEntity
  8
0
 62
     9
100
AcDbBlockReference
  2
_OPEN30
 10
9.396638250752874
 20
3.655579403926087
 30
0.0
 41
1.500001393912182
 42
1.499994636989232
 50
244.9012993638302
  0
LINE
  5
A8
330
59
100
AcDbEntity
  8
0
  6
CONTINUOUS
 62
     9
100
AcDbLine
 10
11.9
 20
9.0
 30
0.0
 11
21.5
 21
9.0
 31
0.0
  0
TEXT
  5
A9
330
59
100
AcDbEntity
  8
0
 62
     7
100
AcDbText
 10
11.9
 20
9.5
 30
0.0
 40
2.0
  1
（+）RED
 41
0.7500000000000001
  7
FDASTYLE0
 72
     5
 11
21.5
 21
9.5
 31
0.0
100
AcDbText
  0
ENDBLK
  5
5B
330
59
100
AcDbEntity
  8
0
100
AcDbBlockEnd
  0
BLOCK
  5
5D
330
5C
100
AcDbEntity
  8
0
100
AcDbBlockBegin
  2
DC_GROUP_2
 70
     0
 71
     0
 10
0.0
 20
0.0
 30
0.0
  3
DC_GROUP_2
  1

  0
LINE
  5
AA
330
5C
100
AcDbEntity
  8
0
  6
CONTINUOUS
 62
     9
100
AcDbLine
 10
9.470622003437091
 20
-3.816779617179908
 30
0.0
 11
11.9
 21
-9.0
 31
0.0
  0
INSERT
  5
AB
330
5C
100
AcDbEntity
  8
0
 62
     9
100
AcDbBlockReference
  2
_OPEN30
 10
9.470622003437091
 20
-3.816779617179908
 30
0.0
 41
1.500001393912182
 42
1.499994636989232
 50
115.1125097194043
  0
LINE
  5
AC
330
5C
100
AcDbEntity
  8
0
  6
CONTINUOUS
 62
     9
100
AcDbLine
 10
11.9
 20
-9.0
 30
0.0
 11
24.7
 21
-9.0
 31
0.0
  0
TEXT
  5
AD
330
5C
100
AcDbEntity
  8
0
 62
     7
100
AcDbText
 10
11.9
 20
-8.5
 30
0.0
 40
2.0
  1
（－）BLACK
 41
0.744186046511628
  7
FDASTYLE0
 72
     5
 11
24.7
 21
-8.5
 31
0.0
100
AcDbText
  0
ENDBLK
  5
5E
330
5C
100
AcDbEntity
  8
0
100
AcDbBlockEnd
  0
BLOCK
  5
60
330
5F
100
AcDbEntity
  8
0
100
AcDbBlockBegin
  2
DA_IMAGEDIMGROUP_7
 70
     0
 71
     0
 10
0.0
 20
0.0
 30
0.0
  3
DA_IMAGEDIMGROUP_7
  1

  0
LINE
  5
AE
330
5F
100
AcDbEntity
  8
0
  6
CONTINUOUS
 62
     9
100
AcDbLine
 10
-9.600000000000001
 20
-5.400000000000005
 30
0.0
 11
-9.600000000000001
 21
-9.5
 31
0.0
  0
LINE
  5
AF
330
5F
100
AcDbEntity
  8
0
  6
CONTINUOUS
 62
     9
100
AcDbLine
 10
-10.1
 20
-3.399999999999998
 30
0.0
 11
-10.1
 21
-9.5
 31
0.0
  0
LINE
  5
B0
330
5F
100
AcDbEntity
  8
0
  6
CONTINUOUS
 62
     9
100
AcDbLine
 10
-10.1
 20
-9.0
 30
0.0
 11
-9.600000000000001
 21
-9.0
 31
0.0
  0
LINE
  5
B1
330
5F
100
AcDbEntity
  8
0
  6
CONTINUOUS
 62
     9
100
AcDbLine
 10
-2.35111
 20
-9.0
 30
0.0
 11
-9.600000000000001
 21
-9.0
 31
0.0
  0
INSERT
  5
B2
330
5F
100
AcDbEntity
  8
0
 62
     9
100
AcDbBlockReference
  2
_OPEN30
 10
-9.600000000000001
 20
-9.0
 30
0.0
 41
1.500001393912182
 42
1.499994636989232
 50
180.0
  0
LINE
  5
B3
330
5F
100
AcDbEntity
  8
0
  6
CONTINUOUS
 62
     9
100
AcDbLine
 10
-12.6
 20
-9.0
 30
0.0
 11
-10.1
 21
-9.0
 31
0.0
  0
INSERT
  5
B4
330
5F
100
AcDbEntity
  8
0
 62
     9
100
AcDbBlockReference
  2
_OPEN30
 10
-10.1
 20
-9.0
 30
0.0
 41
1.500001393912182
 42
1.499994636989232
 50
360.0
  0
TEXT
  5
B5
330
5F
100
AcDbEntity
  8
0
 62
     7
100
AcDbText
 10
-7.651110000000001
 20
-8.5
 30
0.0
 40
2.0
  1
0.5
 41
0.8000000000000002
  7
FDASTYLE0
 72
     5
 11
-2.85111
 21
-8.5
 31
0.0
100
AcDbText
  0
ENDBLK
  5
61
330
5F
100
AcDbEntity
  8
0
100
AcDbBlockEnd
  0
BLOCK
  5
63
330
62
100
AcDbEntity
  8
0
100
AcDbBlockBegin
  2
DC_GROUP_3
 70
     0
 71
     0
 10
0.0
 20
0.0
 30
0.0
  3
DC_GROUP_3
  1

  0
LINE
  5
B6
330
62
100
AcDbEntity
  8
0
  6
CONTINUOUS
 62
     9
100
AcDbLine
 10
-11.14963833556825
 20
-2.749999999999999
 30
0.0
 11
-15.39999999999999
 21
-9.0
 31
0.0
  0
INSERT
  5
B7
330
62
100
AcDbEntity
  8
0
 62
     9
100
AcDbBlockReference
  2
_OPEN30
 10
-11.14963833556825
 20
-2.749999999999999
 30
0.0
 41
1.500001393912182
 42
1.499994636989232
 50
55.78203076822171
  0
LINE
  5
B8
330
62
100
AcDbEntity
  8
0
  6
CONTINUOUS
 62
     9
100
AcDbLine
 10
-15.39999999999999
 20
-9.0
 30
0.0
 11
-32.99999999999999
 21
-9.0
 31
0.0
  0
TEXT
  5
B9
330
62
100
AcDbEntity
  8
0
 62
     7
100
AcDbText
 10
-32.99999999999999
 20
-8.5
 30
0.0
 40
2.0
  1
M5.5(P=0.5)
 41
0.8
  7
FDASTYLE0
 72
     5
 11
-15.39999999999998
 21
-8.5
 31
0.0
100
AcDbText
  0
ENDBLK
  5
64
330
62
100
AcDbEntity
  8
0
100
AcDbBlockEnd
  0
BLOCK
  5
6A
330
69
100
AcDbEntity
  8
0
100
AcDbBlockBegin
  2
_OPEN30
 70
     0
 71
     0
 10
0.0
 20
0.0
 30
0.0
  3
_OPEN30
  1

  0
LINE
  5
6C
330
69
100
AcDbEntity
  8
0
  6
BYBLOCK
 62
     0
100
AcDbLine
 10
-1.0
 20
0.267949
 30
0.0
 11
0.0
 21
0.0
 31
0.0
  0
LINE
  5
6D
330
69
100
AcDbEntity
  8
0
  6
BYBLOCK
 62
     0
100
AcDbLine
 10
0.0
 20
0.0
 30
0.0
 11
-1.0
 21
-0.267949
 31
0.0
  0
LINE
  5
6E
330
69
100
AcDbEntity
  8
0
  6
BYBLOCK
 62
     0
100
AcDbLine
 10
0.0
 20
0.0
 30
0.0
 11
-1.0
 21
0.0
 31
0.0
  0
ENDBLK
  5
6B
330
69
100
AcDbEntity
  8
0
100
AcDbBlockEnd
  0
ENDSEC
  0
SECTION
  2
ENTITIES
  0
LINE
  5
BA
330
1F
100
AcDbEntity
  8
0
  6
CENTER
 62
     9
100
AcDbLine
 10
-14.39999999999999
 20
0.0000000000000009
 30
0.0
 11
8.399999999999999
 21
0.0000000000000009
 31
0.0
  0
LINE
  5
BB
330
1F
100
AcDbEntity
  8
0
  6
CENTER
 62
     9
100
AcDbLine
 10
-38.39999999999999
 20
6.000000000000001
 30
0.0
 11
-38.39999999999999
 21
-5.999999999999999
 31
0.0
  0
LINE
  5
BC
330
1F
100
AcDbEntity
  8
0
  6
CENTER
 62
     9
100
AcDbLine
 10
-44.39999999999999
 20
0.0000000000000009
 30
0.0
 11
-32.39999999999999
 21
0.0000000000000009
 31
0.0
  0
LINE
  5
BD
330
1F
100
AcDbEntity
  8
0
  6
CENTER
 62
     9
100
AcDbLine
 10
32.39999999999999
 20
-0.0000045635238157
 30
0.0
 11
44.39999999999999
 21
-0.0000045635238157
 31
0.0
  0
LINE
  5
BE
330
1F
100
AcDbEntity
  8
0
  6
CENTER
 62
     9
100
AcDbLine
 10
38.39999999999999
 20
5.999995436476184
 30
0.0
 11
38.39999999999999
 21
-6.000004563523816
 31
0.0
  0
LINE
  5
BF
330
1F
100
AcDbEntity
  8
0
  6
CENTER
 62
     9
100
AcDbLine
 10
37.57481955762204
 20
3.300206944076167
 30
0.0
 11
39.22481955762203
 21
3.300206944076167
 31
0.0
  0
LINE
  5
C0
330
1F
100
AcDbEntity
  8
0
  6
CENTER
 62
     9
100
AcDbLine
 10
37.57544448200057
 20
-3.300472234653866
 30
0.0
 11
39.22544448200056
 21
-3.300472234653866
 31
0.0
  0
LINE
  5
C1
330
1F
100
AcDbEntity
  8
0
  6
CONTINUOUS
 62
     9
100
AcDbLine
 10
-10.5
 20
2.500000000000001
 30
0.0
 11
-11.8
 21
2.500000000000001
 31
0.0
  0
LINE
  5
C2
330
1F
100
AcDbEntity
  8
0
  6
CONTINUOUS
 62
     9
100
AcDbLine
 10
-10.5
 20
-2.499999999999999
 30
0.0
 11
-11.8
 21
-2.499999999999999
 31
0.0
  0
LINE
  5
C3
330
1F
100
AcDbEntity
  8
0
  6
CONTINUOUS
 62
     9
100
AcDbLine
 10
14.54111322687614
 20
2.20961529510332
 30
0.0
 11
16.64805996166681
 21
4.316562029894002
 31
0.0
  0
LINE
  5
C4
330
1F
100
AcDbEntity
  8
0
  6
CONTINUOUS
 62
     9
100
AcDbLine
 10
15.24822000806268
 20
2.20961529510332
 30
0.0
 11
17.35516674285336
 21
4.316562029894002
 31
0.0
  0
LINE
  5
C5
330
1F
100
AcDbEntity
  8
0
  6
CONTINUOUS
 62
     9
100
AcDbLine
 10
14.54111322687614
 20
-4.390384704896682
 30
0.0
 11
16.64805996166681
 21
-2.283437970105999
 31
0.0
  0
LINE
  5
C6
330
1F
100
AcDbEntity
  8
0
  6
CONTINUOUS
 62
     9
100
AcDbLine
 10
15.24822000806268
 20
-4.390384704896682
 30
0.0
 11
17.35516674285336
 21
-2.283437970105999
 31
0.0
  0
LINE
  5
C7
330
1F
100
AcDbEntity
  8
0
  6
CONTINUOUS
 62
     3
100
AcDbLine
 10
6.899999999999999
 20
-4.700004563523812
 30
0.0
 11
6.900000000000002
 21
5.000000000000001
 31
0.0
  0
LINE
  5
C8
330
1F
100
AcDbEntity
  8
0
  6
CONTINUOUS
 62
     3
100
AcDbLine
 10
6.899999999999999
 20
4.4
 30
0.0
 11
7.25
 21
4.4
 31
0.0
  0
LINE
  5
C9
330
1F
100
AcDbEntity
  8
0
  6
CONTINUOUS
 62
     3
100
AcDbLine
 10
6.899999999999999
 20
-4.399999999999998
 30
0.0
 11
7.25
 21
-4.399999999999998
 31
0.0
  0
LINE
  5
CA
330
1F
100
AcDbEntity
  8
0
  6
CONTINUOUS
 62
     3
100
AcDbLine
 10
7.399999999999999
 20
4.250000000000001
 30
0.0
 11
7.25
 21
4.4
 31
0.0
  0
LINE
  5
CB
330
1F
100
AcDbEntity
  8
0
  6
CONTINUOUS
 62
     3
100
AcDbLine
 10
7.399999999999999
 20
-4.249999999999999
 30
0.0
 11
7.25
 21
-4.399999999999998
 31
0.0
  0
LINE
  5
CC
330
1F
100
AcDbEntity
  8
0
  6
CONTINUOUS
 62
     3
100
AcDbLine
 10
7.25
 20
-4.399999999999998
 30
0.0
 11
7.25
 21
4.4
 31
0.0
  0
LINE
  5
CD
330
1F
100
AcDbEntity
  8
0
  6
CONTINUOUS
 62
     3
100
AcDbLine
 10
-9.5
 20
5.000000000000001
 30
0.0
 11
6.900000000000002
 21
5.000000000000001
 31
0.0
  0
LINE
  5
CE
330
1F
100
AcDbEntity
  8
0
  6
CONTINUOUS
 62
     3
100
AcDbLine
 10
6.900000000000002
 20
-4.999999999999999
 30
0.0
 11
-9.5
 21
-4.999999999999999
 31
0.0
  0
LINE
  5
CF
330
1F
100
AcDbEntity
  8
0
  6
CONTINUOUS
 62
     3
100
AcDbLine
 10
-9.5
 20
5.000000000000001
 30
0.0
 11
-9.600000000000001
 21
4.900000000000007
 31
0.0
  0
LINE
  5
D0
330
1F
100
AcDbEntity
  8
0
  6
CONTINUOUS
 62
     3
100
AcDbLine
 10
-9.5
 20
-4.999999999999999
 30
0.0
 11
-9.600000000000001
 21
-4.900000000000005
 31
0.0
  0
LINE
  5
D1
330
1F
100
AcDbEntity
  8
0
  6
CONTINUOUS
 62
     3
100
AcDbLine
 10
6.900000000000002
 20
-4.999999999999999
 30
0.0
 11
6.900000000000002
 21
0.0000000000000009
 31
0.0
  0
LINE
  5
D2
330
1F
100
AcDbEntity
  8
0
  6
CONTINUOUS
 62
     3
100
AcDbLine
 10
-9.600000000000001
 20
4.900000000000007
 30
0.0
 11
-9.600000000000001
 21
-4.900000000000005
 31
0.0
  0
LINE
  5
D3
330
1F
100
AcDbEntity
  8
0
  6
CONTINUOUS
 62
     3
100
AcDbLine
 10
-13.19999999999999
 20
-0.4999999999999991
 30
0.0
 11
-12.2
 21
-0.4999999999999991
 31
0.0
  0
ARC
  5
D4
330
1F
100
AcDbEntity
  8
0
  6
CONTINUOUS
 62
     3
100
AcDbCircle
 10
-13.19999999999999
 20
-0.2999999999999963
 30
0.0
 40
0.2
100
AcDbArc
 50
180.0
 51
270.0
  0
LINE
  5
D5
330
1F
100
AcDbEntity
  8
0
  6
CONTINUOUS
 62
     3
100
AcDbLine
 10
7.399999999999999
 20
-4.249999999999999
 30
0.0
 11
7.399999999999999
 21
4.250000000000001
 31
0.0
  0
LINE
  5
D6
330
1F
100
AcDbEntity
  8
0
  6
CONTINUOUS
 62
     3
100
AcDbLine
 10
-10.0
 20
3.000000000000001
 30
0.0
 11
-9.600000000000001
 21
3.000000000000001
 31
0.0
  0
LINE
  5
D7
330
1F
100
AcDbEntity
  8
0
  6
CONTINUOUS
 62
     3
100
AcDbLine
 10
-11.8
 20
2.750000000000001
 30
0.0
 11
-10.5
 21
2.750000000000001
 31
0.0
  0
LINE
  5
D8
330
1F
100
AcDbEntity
  8
0
  6
CONTINUOUS
 62
     3
100
AcDbLine
 10
-10.0
 20
3.000000000000001
 30
0.0
 11
-10.1
 21
2.900000000000007
 31
0.0
  0
LINE
  5
D9
330
1F
100
AcDbEntity
  8
0
  6
CONTINUOUS
 62
     3
100
AcDbLine
 10
-10.1
 20
2.500000000000001
 30
0.0
 11
-10.5
 21
2.500000000000001
 31
0.0
  0
LINE
  5
DA
330
1F
100
AcDbEntity
  8
0
  6
CONTINUOUS
 62
     3
100
AcDbLine
 10
-10.0
 20
-2.999999999999999
 30
0.0
 11
-9.600000000000001
 21
-2.999999999999999
 31
0.0
  0
LINE
  5
DB
330
1F
100
AcDbEntity
  8
0
  6
CONTINUOUS
 62
     3
100
AcDbLine
 10
-11.8
 20
-2.749999999999999
 30
0.0
 11
-10.5
 21
-2.749999999999999
 31
0.0
  0
LINE
  5
DC
330
1F
100
AcDbEntity
  8
0
  6
CONTINUOUS
 62
     3
100
AcDbLine
 10
-10.5
 20
2.750000000000001
 30
0.0
 11
-10.5
 21
-2.749999999999999
 31
0.0
  0
LINE
  5
DD
330
1F
100
AcDbEntity
  8
0
  6
CONTINUOUS
 62
     3
100
AcDbLine
 10
-10.0
 20
-2.999999999999999
 30
0.0
 11
-10.1
 21
-2.899999999999998
 31
0.0
  0
LINE
  5
DE
330
1F
100
AcDbEntity
  8
0
  6
CONTINUOUS
 62
     3
100
AcDbLine
 10
-10.1
 20
2.900000000000007
 30
0.0
 11
-10.1
 21
-2.899999999999998
 31
0.0
  0
LINE
  5
DF
330
1F
100
AcDbEntity
  8
0
  6
CONTINUOUS
 62
     3
100
AcDbLine
 10
-10.1
 20
-2.499999999999999
 30
0.0
 11
-10.5
 21
-2.499999999999999
 31
0.0
  0
LINE
  5
E0
330
1F
100
AcDbEntity
  8
0
  6
CONTINUOUS
 62
     3
100
AcDbLine
 10
-11.8
 20
-2.749999999999999
 30
0.0
 11
-11.8
 21
0.0000000000000009
 31
0.0
  0
LINE
  5
E1
330
1F
100
AcDbEntity
  8
0
  6
CONTINUOUS
 62
     3
100
AcDbLine
 10
-11.8
 20
0.0000000000000009
 30
0.0
 11
-11.8
 21
2.750000000000001
 31
0.0
  0
LINE
  5
E2
330
1F
100
AcDbEntity
  8
0
  6
CONTINUOUS
 62
     3
100
AcDbLine
 10
-13.19999999999999
 20
0.4999999999999938
 30
0.0
 11
-12.2
 21
0.5000000000000009
 31
0.0
  0
LINE
  5
E3
330
1F
100
AcDbEntity
  8
0
  6
CONTINUOUS
 62
     3
100
AcDbLine
 10
-13.39999999999999
 20
0.2999999999999981
 30
0.0
 11
-13.39999999999999
 21
-0.2999999999999963
 31
0.0
  0
ARC
  5
E4
330
1F
100
AcDbEntity
  8
0
  6
CONTINUOUS
 62
     3
100
AcDbCircle
 10
-13.19999999999999
 20
0.2999999999999981
 30
0.0
 40
0.2
100
AcDbArc
 50
90.0
 51
180.0
  0
LINE
  5
E5
330
1F
100
AcDbEntity
  8
0
  6
CONTINUOUS
 62
     3
100
AcDbLine
 10
-11.8
 20
-1.299999999999996
 30
0.0
 11
-11.9
 21
-1.299999999999996
 31
0.0
  0
LINE
  5
E6
330
1F
100
AcDbEntity
  8
0
  6
CONTINUOUS
 62
     3
100
AcDbLine
 10
-11.9
 20
1.300000000000005
 30
0.0
 11
-11.9
 21
-1.299999999999996
 31
0.0
  0
LINE
  5
E7
330
1F
100
AcDbEntity
  8
0
  6
CONTINUOUS
 62
     3
100
AcDbLine
 10
-11.8
 20
1.300000000000005
 30
0.0
 11
-12.2
 21
1.300000000000005
 31
0.0
  0
LINE
  5
E8
330
1F
100
AcDbEntity
  8
0
  6
CONTINUOUS
 62
     3
100
AcDbLine
 10
-11.9
 20
-1.299999999999996
 30
0.0
 11
-12.2
 21
-1.299999999999996
 31
0.0
  0
LINE
  5
E9
330
1F
100
AcDbEntity
  8
0
  6
CONTINUOUS
 62
     3
100
AcDbLine
 10
-12.2
 20
1.300000000000005
 30
0.0
 11
-12.2
 21
-1.299999999999996
 31
0.0
  0
CIRCLE
  5
EA
330
1F
100
AcDbEntity
  8
0
  6
CONTINUOUS
 62
     3
100
AcDbCircle
 10
-38.39999999999999
 20
0.0000000000000009
 30
0.0
 40
5.0
  0
CIRCLE
  5
EB
330
1F
100
AcDbEntity
  8
0
  6
CONTINUOUS
 62
     3
100
AcDbCircle
 10
-38.39999999999999
 20
0.0000000000000009
 30
0.0
 40
4.5
  0
CIRCLE
  5
EC
330
1F
100
AcDbEntity
  8
0
  6
CONTINUOUS
 62
     3
100
AcDbCircle
 10
-38.39999999999999
 20
0.0000000000000009
 30
0.0
 40
1.75
  0
CIRCLE
  5
ED
330
1F
100
AcDbEntity
  8
0
  6
CONTINUOUS
 62
     3
100
AcDbCircle
 10
-38.39999999999999
 20
0.0000000000000009
 30
0.0
 40
1.4
  0
CIRCLE
  5
EE
330
1F
100
AcDbEntity
  8
0
  6
CONTINUOUS
 62
     3
100
AcDbCircle
 10
-38.39999999999999
 20
0.0000000000000009
 30
0.0
 40
3.0
  0
CIRCLE
  5
EF
330
1F
100
AcDbEntity
  8
0
  6
CONTINUOUS
 62
     3
100
AcDbCircle
 10
-38.39999999999999
 20
0.0000000000000009
 30
0.0
 40
2.75
  0
CIRCLE
  5
F0
330
1F
100
AcDbEntity
  8
0
  6
CONTINUOUS
 62
     3
100
AcDbCircle
 10
-38.39999999999999
 20
0.0000000000000009
 30
0.0
 40
0.5
  0
LINE
  5
F1
330
1F
100
AcDbEntity
  8
0
  6
CONTINUOUS
 62
     3
100
AcDbLine
 10
24.4
 20
3.760000000000006
 30
0.0
 11
24.4
 21
2.840000000000004
 31
0.0
  0
LINE
  5
F2
330
1F
100
AcDbEntity
  8
0
  6
CONTINUOUS
 62
     3
100
AcDbLine
 10
7.399999999999999
 20
3.760000000000006
 30
0.0
 11
16.09149793177282
 21
3.760000000000006
 31
0.0
  0
LINE
  5
F3
330
1F
100
AcDbEntity
  8
0
  6
CONTINUOUS
 62
     3
100
AcDbLine
 10
16.79860471295936
 20
3.760000000000006
 30
0.0
 11
24.4
 21
3.760000000000006
 31
0.0
  0
LINE
  5
F4
330
1F
100
AcDbEntity
  8
0
  6
CONTINUOUS
 62
     3
100
AcDbLine
 10
24.4
 20
2.840000000000004
 30
0.0
 11
15.87860471295937
 21
2.840000000000004
 31
0.0
  0
LINE
  5
F5
330
1F
100
AcDbEntity
  8
0
  6
CONTINUOUS
 62
     3
100
AcDbLine
 10
15.17149793177282
 20
2.840000000000004
 30
0.0
 11
7.399999999999999
 21
2.840000000000004
 31
0.0
  0
LINE
  5
F6
330
1F
100
AcDbEntity
  8
0
  6
CONTINUOUS
 62
     3
100
AcDbLine
 10
24.4
 20
-2.839999999999995
 30
0.0
 11
24.4
 21
-3.759999999999997
 31
0.0
  0
LINE
  5
F7
330
1F
100
AcDbEntity
  8
0
  6
CONTINUOUS
 62
     3
100
AcDbLine
 10
7.399999999999999
 20
-2.839999999999995
 30
0.0
 11
16.09149793177282
 21
-2.839999999999995
 31
0.0
  0
LINE
  5
F8
330
1F
100
AcDbEntity
  8
0
  6
CONTINUOUS
 62
     3
100
AcDbLine
 10
16.79860471295936
 20
-2.839999999999995
 30
0.0
 11
24.4
 21
-2.839999999999995
 31
0.0
  0
LINE
  5
F9
330
1F
100
AcDbEntity
  8
0
  6
CONTINUOUS
 62
     3
100
AcDbLine
 10
24.4
 20
-3.759999999999997
 30
0.0
 11
15.87860471295937
 21
-3.759999999999997
 31
0.0
  0
LINE
  5
FA
330
1F
100
AcDbEntity
  8
0
  6
CONTINUOUS
 62
     3
100
AcDbLine
 10
15.17149793177282
 20
-3.759999999999997
 30
0.0
 11
7.399999999999999
 21
-3.759999999999997
 31
0.0
  0
CIRCLE
  5
FB
330
1F
100
AcDbEntity
  8
0
  6
CONTINUOUS
 62
     3
100
AcDbCircle
 10
38.39999999999999
 20
-0.0000045635238157
 30
0.0
 40
5.0
  0
CIRCLE
  5
FC
330
1F
100
AcDbEntity
  8
0
  6
CONTINUOUS
 62
     3
100
AcDbCircle
 10
37.00573533825156
 20
-2.991458073946858
 30
0.0
 40
0.4999999999999998
  0
CIRCLE
  5
FD
330
1F
100
AcDbEntity
  8
0
  6
CONTINUOUS
 62
     3
100
AcDbCircle
 10
38.40044448200057
 20
-3.300472234653866
 30
0.0
 40
0.5249999999999999
  0
CIRCLE
  5
FE
330
1F
100
AcDbEntity
  8
0
  6
CONTINUOUS
 62
     3
100
AcDbCircle
 10
39.79452870137104
 20
2.991192783369159
 30
0.0
 40
0.4999999999999998
  0
CIRCLE
  5
FF
330
1F
100
AcDbEntity
  8
0
  6
CONTINUOUS
 62
     3
100
AcDbCircle
 10
38.39981955762204
 20
3.300206944076167
 30
0.0
 40
0.5249999999999999
  0
CIRCLE
  5
100
330
1F
100
AcDbEntity
  8
0
  6
CONTINUOUS
 62
     3
100
AcDbCircle
 10
38.39981957764668
 20
-0.0000045635238157
 30
0.0
 40
2.399999999999999
  0
CIRCLE
  5
101
330
1F
100
AcDbEntity
  8
0
  6
CONTINUOUS
 62
     3
100
AcDbCircle
 10
38.39981957764668
 20
-0.0000045635238157
 30
0.0
 40
4.26801488286701
  0
CIRCLE
  5
102
330
1F
100
AcDbEntity
  8
0
  6
CONTINUOUS
 62
     3
100
AcDbCircle
 10
38.39981957764668
 20
-0.0000045635238157
 30
0.0
 40
4.45
  0
CIRCLE
  5
103
330
1F
100
AcDbEntity
  8
0
  6
CONTINUOUS
 62
     3
100
AcDbCircle
 10
38.39981957764668
 20
-0.0000045635238157
 30
0.0
 40
4.700000000000003
  0
CIRCLE
  5
104
330
1F
100
AcDbEntity
  8
0
  6
CONTINUOUS
 62
     3
100
AcDbCircle
 10
38.40044448200057
 20
-3.300472234653866
 30
0.0
 40
0.19
  0
CIRCLE
  5
105
330
1F
100
AcDbEntity
  8
0
  6
CONTINUOUS
 62
     3
100
AcDbCircle
 10
38.40044448200055
 20
3.300463107606235
 30
0.0
 40
0.19
  0
LINE
  5
106
330
1F
100
AcDbEntity
  8
0
  6
CONTINUOUS
 62
     3
100
AcDbLine
 10
24.4
 20
3.490000000000003
 30
0.0
 11
29.4
 21
3.490000000000003
 31
0.0
  0
LINE
  5
107
330
1F
100
AcDbEntity
  8
0
  6
CONTINUOUS
 62
     3
100
AcDbLine
 10
24.4
 20
3.11
 30
0.0
 11
29.4
 21
3.11
 31
0.0
  0
LINE
  5
108
330
1F
100
AcDbEntity
  8
0
  6
CONTINUOUS
 62
     3
100
AcDbLine
 10
24.4
 20
-3.109999999999999
 30
0.0
 11
29.4
 21
-3.109999999999999
 31
0.0
  0
LINE
  5
109
330
1F
100
AcDbEntity
  8
0
  6
CONTINUOUS
 62
     3
100
AcDbLine
 10
24.4
 20
-3.489999999999994
 30
0.0
 11
29.4
 21
-3.489999999999994
 31
0.0
  0
LINE
  5
10A
330
1F
100
AcDbEntity
  8
0
  6
CONTINUOUS
 62
     3
100
AcDbLine
 10
29.4
 20
3.490000000000003
 30
0.0
 11
29.4
 21
3.11
 31
0.0
  0
LINE
  5
10B
330
1F
100
AcDbEntity
  8
0
  6
CONTINUOUS
 62
     3
100
AcDbLine
 10
29.4
 20
-3.109999999999999
 30
0.0
 11
29.4
 21
-3.489999999999994
 31
0.0
  0
INSERT
  5
10C
330
1F
100
AcDbEntity
  8
0
  6
CONTINUOUS
100
AcDbBlockReference
  2
DA_IMAGEDIMGROUP_1
 10
0.0
 20
0.0
 30
0.0
  0
INSERT
  5
10D
330
1F
100
AcDbEntity
  8
0
  6
CONTINUOUS
100
AcDbBlockReference
  2
DA_IMAGEDIMGROUP_2
 10
0.0
 20
0.0
 30
0.0
  0
INSERT
  5
10E
330
1F
100
AcDbEntity
  8
0
  6
CONTINUOUS
100
AcDbBlockReference
  2
DA_IMAGEDIMGROUP_3
 10
0.0
 20
0.0
 30
0.0
  0
INSERT
  5
10F
330
1F
100
AcDbEntity
  8
0
  6
CONTINUOUS
100
AcDbBlockReference
  2
DA_IMAGEDIMGROUP_4
 10
0.0
 20
0.0
 30
0.0
  0
INSERT
  5
110
330
1F
100
AcDbEntity
  8
0
  6
CONTINUOUS
100
AcDbBlockReference
  2
DA_IMAGEDIMGROUP_5
 10
0.0
 20
0.0
 30
0.0
  0
INSERT
  5
111
330
1F
100
AcDbEntity
  8
0
  6
CONTINUOUS
100
AcDbBlockReference
  2
DA_IMAGEDIMGROUP_6
 10
0.0
 20
0.0
 30
0.0
  0
INSERT
  5
112
330
1F
100
AcDbEntity
  8
0
  6
CONTINUOUS
100
AcDbBlockReference
  2
DC_GROUP_1
 10
0.0
 20
0.0
 30
0.0
  0
INSERT
  5
113
330
1F
100
AcDbEntity
  8
0
  6
CONTINUOUS
100
AcDbBlockReference
  2
DC_GROUP_2
 10
0.0
 20
0.0
 30
0.0
  0
INSERT
  5
114
330
1F
100
AcDbEntity
  8
0
  6
CONTINUOUS
100
AcDbBlockReference
  2
DA_IMAGEDIMGROUP_7
 10
0.0
 20
0.0
 30
0.0
  0
INSERT
  5
115
330
1F
100
AcDbEntity
  8
0
  6
CONTINUOUS
100
AcDbBlockReference
  2
DC_GROUP_3
 10
0.0
 20
0.0
 30
0.0
  0
VIEWPORT
  5
46
330
1B
100
AcDbEntity
 67
     1
  8
0
100
AcDbViewport
 10
0.0
 20
-3.300000000000001
 30
0.0
 40
266.4
 41
76.80000000000001
 68
     1
 69
     1
1001
ACAD
1000
MVIEW
1002
{
1070
    16
1010
0.0
1020
0.0
1030
0.0
1010
0.0
1020
0.0
1030
1.0
1040
0.0
1040
76.80000000000001
1040
0.0
1040
-3.300000000000001
1040
50.0
1040
0.0
1040
0.0
1070
     0
1070
   100
1070
     0
1070
     1
1070
     0
1070
     0
1070
     0
1070
     0
1040
0.0
1040
0.0
1040
0.0
1040
0.5
1040
0.5
1040
0.0
1040
0.0
1070
     0
1002
{
1002
}
1002
}
  0
ENDSEC
  0
SECTION
  2
OBJECTS
  0
DICTIONARY
  5
C
330
0
100
AcDbDictionary
  3
ACAD_GROUP
350
D
  3
ACAD_LAYOUT
350
1A
  3
ACAD_MLINESTYLE
350
17
  3
ACAD_PLOTSETTINGS
350
19
  3
ACDBHEADERROUNDTRIPXREC
350
116
  0
DICTIONARY
  5
D
102
{ACAD_REACTORS
330
C
102
}
330
C
100
AcDbDictionary
  0
DICTIONARY
  5
1A
102
{ACAD_REACTORS
330
C
102
}
330
C
100
AcDbDictionary
  0
DICTIONARY
  5
17
102
{ACAD_REACTORS
330
C
102
}
330
C
100
AcDbDictionary
  3
STANDARD
350
18
  0
DICTIONARY
  5
19
102
{ACAD_REACTORS
330
C
102
}
330
C
100
AcDbDictionary
  0
DICTIONARY
  5
116
102
{ACAD_REACTORS
330
C
102
}
330
C
100
AcDbDictionary
  3
CEPSNTYPE
350
11F
  3
DIMSTYLEDATA
350
135
  3
FINGERPRINTGUID
350
120
  3
HYPERLINKBASE
350
119
  3
INSUNITS
350
11E
  3
LAYOUTDICT
350
11B
  3
LWETCUNION
350
11D
  3
PLOTSETDICT
350
11C
  3
PSVPSCALE
350
122
  3
PUCSBASE
350
125
  3
PUCSORGBACK
350
12B
  3
PUCSORGBOTTOM
350
127
  3
PUCSORGFRONT
350
12A
  3
PUCSORGLEFT
350
128
  3
PUCSORGRIGHT
350
129
  3
PUCSORGTOP
350
126
  3
PUCSORTHOREF
350
123
  3
PUCSORTHOVIEW
350
124
  3
STYLESHEET
350
11A
  3
TSTACKALIGN
350
117
  3
TSTACKSIZE
350
118
  3
UCSBASE
350
12E
  3
UCSORGBACK
350
134
  3
UCSORGBOTTOM
350
130
  3
UCSORGFRONT
350
133
  3
UCSORGLEFT
350
131
  3
UCSORGRIGHT
350
132
  3
UCSORGTOP
350
12F
  3
UCSORTHOREF
350
12C
  3
UCSORTHOVIEW
350
12D
  3
VERSIONGUID
350
121
  0
MLINESTYLE
  5
18
102
{ACAD_REACTORS
330
17
102
}
330
17
100
AcDbMlineStyle
  2
Standard
 70
     0
  3

 62
   256
 51
90.0
 52
90.0
 71
     2
 49
0.5
 62
   256
  6
BYLAYER
 49
-0.5
 62
   256
  6
BYLAYER
  0
XRECORD
  5
11F
102
{ACAD_REACTORS
330
116
102
}
330
116
100
AcDbXrecord
 90
        0
  0
XRECORD
  5
135
102
{ACAD_REACTORS
330
116
102
}
330
116
100
AcDbXrecord
1000
DSTYLE
1002
{
1070
   171
 70
     2
1070
   143
 40
25.4
1070
   274
 70
     2
1070
    41
 40
1.25
1070
   141
 40
0.09
1070
   271
 70
     4
1070
    43
 40
0.38
1070
    44
 40
0.18
1070
   278
 70
    46
1070
    42
 40
0.0625
1070
   147
 40
0.09
1070
    77
 70
     3
1070
   272
 70
     4
1070
    73
 70
     1
1070
   172
 70
     0
1070
    74
 70
     1
1070
   283
 70
     1
1070
   340
340
11
1070
   140
 40
0.18
1070
   284
 70
     0
1070
    78
 70
     0
1002
}
  0
XRECORD
  5
120
102
{ACAD_REACTORS
330
116
102
}
330
116
100
AcDbXrecord
  1
{B781F417-EE3C-477D-A6C8-D333FC9DF7EB}
  0
XRECORD
  5
119
102
{ACAD_REACTORS
330
116
102
}
330
116
100
AcDbXrecord
  1

  0
XRECORD
  5
11E
102
{ACAD_REACTORS
330
116
102
}
330
116
100
AcDbXrecord
 90
        4
  0
XRECORD
  5
11B
102
{ACAD_REACTORS
330
116
102
}
330
116
100
AcDbXrecord
340
1A
  0
XRECORD
  5
11D
102
{ACAD_REACTORS
330
116
102
}
330
116
100
AcDbXrecord
 90
    10781
  0
XRECORD
  5
11C
102
{ACAD_REACTORS
330
116
102
}
330
116
100
AcDbXrecord
340
19
  0
XRECORD
  5
122
102
{ACAD_REACTORS
330
116
102
}
330
116
100
AcDbXrecord
 40
0.0
  0
XRECORD
  5
125
102
{ACAD_REACTORS
330
116
102
}
330
116
100
AcDbXrecord
340
0
  0
XRECORD
  5
12B
102
{ACAD_REACTORS
330
116
102
}
330
116
100
AcDbXrecord
 10
0.0
 20
0.0
 30
0.0
  0
XRECORD
  5
127
102
{ACAD_REACTORS
330
116
102
}
330
116
100
AcDbXrecord
 10
0.0
 20
0.0
 30
0.0
  0
XRECORD
  5
12A
102
{ACAD_REACTORS
330
116
102
}
330
116
100
AcDbXrecord
 10
0.0
 20
0.0
 30
0.0
  0
XRECORD
  5
128
102
{ACAD_REACTORS
330
116
102
}
330
116
100
AcDbXrecord
 10
0.0
 20
0.0
 30
0.0
  0
XRECORD
  5
129
102
{ACAD_REACTORS
330
116
102
}
330
116
100
AcDbXrecord
 10
0.0
 20
0.0
 30
0.0
  0
XRECORD
  5
126
102
{ACAD_REACTORS
330
116
102
}
330
116
100
AcDbXrecord
 10
0.0
 20
0.0
 30
0.0
  0
XRECORD
  5
123
102
{ACAD_REACTORS
330
116
102
}
330
116
100
AcDbXrecord
340
0
  0
XRECORD
  5
124
102
{ACAD_REACTORS
330
116
102
}
330
116
100
AcDbXrecord
 70
     0
  0
XRECORD
  5
11A
102
{ACAD_REACTORS
330
116
102
}
330
116
100
AcDbXrecord
  1

  0
XRECORD
  5
117
102
{ACAD_REACTORS
330
116
102
}
330
116
100
AcDbXrecord
 90
        1
  0
XRECORD
  5
118
102
{ACAD_REACTORS
330
116
102
}
330
116
100
AcDbXrecord
 90
       70
  0
XRECORD
  5
12E
102
{ACAD_REACTORS
330
116
102
}
330
116
100
AcDbXrecord
340
0
  0
XRECORD
  5
134
102
{ACAD_REACTORS
330
116
102
}
330
116
100
AcDbXrecord
 10
0.0
 20
0.0
 30
0.0
  0
XRECORD
  5
130
102
{ACAD_REACTORS
330
116
102
}
330
116
100
AcDbXrecord
 10
0.0
 20
0.0
 30
0.0
  0
XRECORD
  5
133
102
{ACAD_REACTORS
330
116
102
}
330
116
100
AcDbXrecord
 10
0.0
 20
0.0
 30
0.0
  0
XRECORD
  5
131
102
{ACAD_REACTORS
330
116
102
}
330
116
100
AcDbXrecord
 10
0.0
 20
0.0
 30
0.0
  0
XRECORD
  5
132
102
{ACAD_REACTORS
330
116
102
}
330
116
100
AcDbXrecord
 10
0.0
 20
0.0
 30
0.0
  0
XRECORD
  5
12F
102
{ACAD_REACTORS
330
116
102
}
330
116
100
AcDbXrecord
 10
0.0
 20
0.0
 30
0.0
  0
XRECORD
  5
12C
102
{ACAD_REACTORS
330
116
102
}
330
116
100
AcDbXrecord
340
0
  0
XRECORD
  5
12D
102
{ACAD_REACTORS
330
116
102
}
330
116
100
AcDbXrecord
 70
     0
  0
XRECORD
  5
121
102
{ACAD_REACTORS
330
116
102
}
330
116
100
AcDbXrecord
  1
{FAEB1C32-E019-11D5-929B-00C0DF256EC4}
  0
ENDSEC
  0
EOF
