  0
SECTION
  2
HEADER
  9
$ACADVER
  1
AC1014
  9
$ACADMAINTVER
 70
     9
  9
$DWGCODEPAGE
  3
ANSI_932
  9
$INSBASE
 10
0.0
 20
0.0
 30
0.0
  9
$EXTMIN
 10
-150.712654981814
 20
-59.68103751039155
 30
0.0
  9
$EXTMAX
 10
151.4418512600079
 20
58.04822103751093
 30
0.0
  9
$LIMMIN
 10
-74.25
 20
-52.5
  9
$LIMMAX
 10
74.25
 20
52.5
  9
$ORTHOMODE
 70
     0
  9
$REGENMODE
 70
     1
  9
$FILLMODE
 70
     1
  9
$QTEXTMODE
 70
     0
  9
$MIRRTEXT
 70
     1
  9
$DRAGMODE
 70
     2
  9
$LTSCALE
 40
0.5
  9
$OSMODE
 70
    37
  9
$ATTMODE
 70
     1
  9
$TEXTSIZE
 40
0.2
  9
$TRACEWID
 40
0.05
  9
$TEXTSTYLE
  7
STANDARD
  9
$CLAYER
  8
0
  9
$CELTYPE
  6
BYLAYER
  9
$CECOLOR
 62
   256
  9
$CELTSCALE
 40
1.0
  9
$DELOBJ
 70
     1
  9
$DISPSILH
 70
     0
  9
$DIMSCALE
 40
1.0
  9
$DIMASZ
 40
1.25
  9
$DIMEXO
 40
0.0625
  9
$DIMDLI
 40
0.38
  9
$DIMRND
 40
0.0
  9
$DIMDLE
 40
0.0
  9
$DIMEXE
 40
0.18
  9
$DIMTP
 40
0.0
  9
$DIMTM
 40
0.0
  9
$DIMTXT
 40
0.18
  9
$DIMCEN
 40
0.09
  9
$DIMTSZ
 40
0.0
  9
$DIMTOL
 70
     0
  9
$DIMLIM
 70
     0
  9
$DIMTIH
 70
     1
  9
$DIMTOH
 70
     1
  9
$DIMSE1
 70
     0
  9
$DIMSE2
 70
     0
  9
$DIMTAD
 70
     3
  9
$DIMZIN
 70
     0
  9
$DIMBLK
  1

  9
$DIMASO
 70
     1
  9
$DIMSHO
 70
     1
  9
$DIMPOST
  1

  9
$DIMAPOST
  1

  9
$DIMALT
 70
     0
  9
$DIMALTD
 70
     2
  9
$DIMALTF
 40
25.4
  9
$DIMLFAC
 40
1.0
  9
$DIMTOFL
 70
     0
  9
$DIMTVP
 40
0.0
  9
$DIMTIX
 70
     0
  9
$DIMSOXD
 70
     0
  9
$DIMSAH
 70
     0
  9
$DIMBLK1
  1

  9
$DIMBLK2
  1

  9
$DIMSTYLE
  2
STANDARD
  9
$DIMCLRD
 70
     0
  9
$DIMCLRE
 70
     0
  9
$DIMCLRT
 70
     0
  9
$DIMTFAC
 40
1.0
  9
$DIMGAP
 40
0.09
  9
$DIMJUST
 70
     0
  9
$DIMSD1
 70
     0
  9
$DIMSD2
 70
     0
  9
$DIMTOLJ
 70
     1
  9
$DIMTZIN
 70
     0
  9
$DIMALTZ
 70
     0
  9
$DIMALTTZ
 70
     0
  9
$DIMFIT
 70
     3
  9
$DIMUPT
 70
     0
  9
$DIMUNIT
 70
     2
  9
$DIMDEC
 70
     4
  9
$DIMTDEC
 70
     4
  9
$DIMALTU
 70
     2
  9
$DIMALTTD
 70
     2
  9
$DIMTXSTY
  7
STANDARD
  9
$DIMAUNIT
 70
     0
  9
$LUNITS
 70
     2
  9
$LUPREC
 70
     4
  9
$SKETCHINC
 40
0.1
  9
$FILLETRAD
 40
0.5
  9
$AUNITS
 70
     0
  9
$AUPREC
 70
     0
  9
$MENU
  1
.
  9
$ELEVATION
 40
0.0
  9
$PELEVATION
 40
0.0
  9
$THICKNESS
 40
0.0
  9
$LIMCHECK
 70
     0
  9
$CHAMFERA
 40
0.5
  9
$CHAMFERB
 40
0.5
  9
$CHAMFERC
 40
1.0
  9
$CHAMFERD
 40
0.0
  9
$SKPOLY
 70
     0
  9
$TDCREATE
 40
2456274.480026794
  9
$TDUPDATE
 40
2456274.480026806
  9
$TDINDWG
 40
0.0000000116
  9
$TDUSRTIMER
 40
0.0000000116
  9
$USRTIMER
 70
     1
  9
$ANGBASE
 50
0.0
  9
$ANGDIR
 70
     0
  9
$PDMODE
 70
     0
  9
$PDSIZE
 40
1.0
  9
$PLINEWID
 40
0.0
  9
$COORDS
 70
     1
  9
$SPLFRAME
 70
     0
  9
$SPLINETYPE
 70
     6
  9
$SPLINESEGS
 70
     8
  9
$ATTDIA
 70
     0
  9
$ATTREQ
 70
     1
  9
$HANDLING
 70
     1
  9
$HANDSEED
  5
138
  9
$SURFTAB1
 70
     6
  9
$SURFTAB2
 70
     6
  9
$SURFTYPE
 70
     6
  9
$SURFU
 70
     6
  9
$SURFV
 70
     6
  9
$UCSNAME
  2

  9
$UCSORG
 10
0.0
 20
0.0
 30
0.0
  9
$UCSXDIR
 10
1.0
 20
0.0
 30
0.0
  9
$UCSYDIR
 10
0.0
 20
1.0
 30
0.0
  9
$PUCSNAME
  2

  9
$PUCSORG
 10
0.0
 20
0.0
 30
0.0
  9
$PUCSXDIR
 10
1.0
 20
0.0
 30
0.0
  9
$PUCSYDIR
 10
0.0
 20
1.0
 30
0.0
  9
$USERI1
 70
     0
  9
$USERI2
 70
     0
  9
$USERI3
 70
     0
  9
$USERI4
 70
     0
  9
$USERI5
 70
     0
  9
$USERR1
 40
0.0
  9
$USERR2
 40
0.0
  9
$USERR3
 40
0.0
  9
$USERR4
 40
0.0
  9
$USERR5
 40
0.0
  9
$WORLDVIEW
 70
     1
  9
$SHADEDGE
 70
     3
  9
$SHADEDIF
 70
    70
  9
$TILEMODE
 70
     1
  9
$MAXACTVP
 70
    64
  9
$PINSBASE
 10
0.0
 20
0.0
 30
0.0
  9
$PLIMCHECK
 70
     0
  9
$PEXTMIN
 10
1.000000000000000E+20
 20
1.000000000000000E+20
 30
1.000000000000000E+20
  9
$PEXTMAX
 10
-1.000000000000000E+20
 20
-1.000000000000000E+20
 30
-1.000000000000000E+20
  9
$PLIMMIN
 10
0.0
 20
0.0
  9
$PLIMMAX
 10
12.0
 20
9.0
  9
$UNITMODE
 70
     0
  9
$VISRETAIN
 70
     0
  9
$PLINEGEN
 70
     1
  9
$PSLTSCALE
 70
     0
  9
$TREEDEPTH
 70
  3020
  9
$PICKSTYLE
 70
     1
  9
$CMLSTYLE
  2
STANDARD
  9
$CMLJUST
 70
     0
  9
$CMLSCALE
 40
1.0
  9
$PROXYGRAPHICS
 70
     0
  9
$MEASUREMENT
 70
     1
  0
ENDSEC
  0
SECTION
  2
CLASSES
  0
CLASS
  1
ACDBDICTIONARYWDFLT
  2
AcDbDictionaryWithDefault
  3
ObjectDBX Classes
 90
        0
280
     0
281
     0
  0
CLASS
  1
XRECORD
  2
AcDbXrecord
  3
AutoCAD 2000
 90
        0
280
     0
281
     0
  0
CLASS
  1
LWPOLYLINE
  2
AcDbPolyline
  3
AutoCAD 2000
 90
        0
280
     0
281
     1
  0
CLASS
  1
HATCH
  2
AcDbHatch
  3
AutoCAD 2000
 90
        0
280
     0
281
     1
  0
CLASS
  1
ACDBPLACEHOLDER
  2
AcDbPlaceHolder
  3
ObjectDBX Classes
 90
        0
280
     0
281
     0
  0
CLASS
  1
LAYOUT
  2
AcDbLayout
  3
ObjectDBX Classes
 90
        0
280
     0
281
     0
  0
ENDSEC
  0
SECTION
  2
TABLES
  0
TABLE
  2
VPORT
  5
8
330
0
100
AcDbSymbolTable
 70
     1
  0
VPORT
  5
29
330
8
100
AcDbSymbolTableRecord
100
AcDbViewportTableRecord
  2
*ACTIVE
 70
     0
 10
0.0
 20
0.0
 11
1.0
 21
1.0
 12
0.0
 22
0.0
 13
0.0
 23
0.0
 14
0.5
 24
0.5
 15
0.5
 25
0.5
 16
0.0
 26
0.0
 36
1.0
 17
0.3645981390969304
 27
-0.8164082364403065
 37
0.0
 40
40.02794790628685
 41
2.566520081487469
 42
50.0
 43
0.0
 44
0.0
 50
0.0
 51
0.0
 71
     0
 72
  1000
 73
     1
 74
     1
 75
     0
 76
     0
 77
     0
 78
     0
  0
ENDTAB
  0
TABLE
  2
LTYPE
  5
5
330
0
100
AcDbSymbolTable
 70
    28
  0
LTYPE
  5
14
330
5
100
AcDbSymbolTableRecord
100
AcDbLinetypeTableRecord
  2
BYBLOCK
 70
     0
  3

 72
    65
 73
     0
 40
0.0
  0
LTYPE
  5
15
330
5
100
AcDbSymbolTableRecord
100
AcDbLinetypeTableRecord
  2
BYLAYER
 70
     0
  3

 72
    65
 73
     0
 40
0.0
  0
LTYPE
  5
16
330
5
100
AcDbSymbolTableRecord
100
AcDbLinetypeTableRecord
  2
CONTINUOUS
 70
     0
  3
Solid line
 72
    65
 73
     0
 40
0.0
  0
LTYPE
  5
2B
330
5
100
AcDbSymbolTableRecord
100
AcDbLinetypeTableRecord
  2
HIDDENX2
 70
     0
  3
CADPAC LINETYPE
 72
    65
 73
     2
 40
4.320987654320959
 49
3.240740740740719
 74
     0
 49
-1.08024691358024
 74
     0
  0
LTYPE
  5
2C
330
5
100
AcDbSymbolTableRecord
100
AcDbLinetypeTableRecord
  2
HIDDEN
 70
     0
  3
CADPAC LINETYPE
 72
    65
 73
     2
 40
3.240740740740719
 49
2.160493827160479
 74
     0
 49
-1.08024691358024
 74
     0
  0
LTYPE
  5
2D
330
5
100
AcDbSymbolTableRecord
100
AcDbLinetypeTableRecord
  2
HIDDEN2
 70
     0
  3
CADPAC LINETYPE
 72
    65
 73
     2
 40
2.700617283950599
 49
1.62037037037036
 74
     0
 49
-1.08024691358024
 74
     0
  0
LTYPE
  5
2E
330
5
100
AcDbSymbolTableRecord
100
AcDbLinetypeTableRecord
  2
DASHED
 70
     0
  3
CADPAC LINETYPE
 72
    65
 73
     2
 40
3.024691358024683
 49
2.160493827160479
 74
     0
 49
-0.8641975308642032
 74
     0
  0
LTYPE
  5
2F
330
5
100
AcDbSymbolTableRecord
100
AcDbLinetypeTableRecord
  2
DASHED2
 70
     0
  3
CADPAC LINETYPE
 72
    65
 73
     2
 40
1.944444444444457
 49
1.296296296296305
 74
     0
 49
-0.6481481481481524
 74
     0
  0
LTYPE
  5
30
330
5
100
AcDbSymbolTableRecord
100
AcDbLinetypeTableRecord
  2
DASHEDX2
 70
     0
  3
CADPAC LINETYPE
 72
    65
 73
     2
 40
5.185185185185219
 49
4.320987654321016
 74
     0
 49
-0.8641975308642032
 74
     0
  0
LTYPE
  5
31
330
5
100
AcDbSymbolTableRecord
100
AcDbLinetypeTableRecord
  2
DOTX2
 70
     0
  3
CADPAC LINETYPE
 72
    65
 73
     2
 40
1.890432098765444
 49
0.0
 74
     0
 49
-1.890432098765444
 74
     0
  0
LTYPE
  5
32
330
5
100
AcDbSymbolTableRecord
100
AcDbLinetypeTableRecord
  2
DOT
 70
     0
  3
CADPAC LINETYPE
 72
    65
 73
     2
 40
1.512345679012356
 49
0.0
 74
     0
 49
-1.512345679012356
 74
     0
  0
LTYPE
  5
33
330
5
100
AcDbSymbolTableRecord
100
AcDbLinetypeTableRecord
  2
DOT2
 70
     0
  3
CADPAC LINETYPE
 72
    65
 73
     2
 40
1.134259259259267
 49
0.0
 74
     0
 49
-1.134259259259267
 74
     0
  0
LTYPE
  5
34
330
5
100
AcDbSymbolTableRecord
100
AcDbLinetypeTableRecord
  2
CENTERX2
 70
     0
  3
CADPAC LINETYPE
 72
    65
 73
     4
 40
6.481481481481438
 49
2.700617283950599
 74
     0
 49
-1.3503086419753
 74
     0
 49
1.08024691358024
 74
     0
 49
-1.3503086419753
 74
     0
  0
LTYPE
  5
35
330
5
100
AcDbSymbolTableRecord
100
AcDbLinetypeTableRecord
  2
CENTER
 70
     0
  3
CADPAC LINETYPE
 72
    65
 73
     4
 40
4.969135802469102
 49
2.160493827160479
 74
     0
 49
-1.08024691358024
 74
     0
 49
0.6481481481481438
 74
     0
 49
-1.08024691358024
 74
     0
  0
LTYPE
  5
36
330
5
100
AcDbSymbolTableRecord
100
AcDbLinetypeTableRecord
  2
CENTER2
 70
     0
  3
CADPAC LINETYPE
 72
    65
 73
     4
 40
3.456790123456767
 49
1.62037037037036
 74
     0
 49
-0.8101851851851798
 74
     0
 49
0.216049382716048
 74
     0
 49
-0.8101851851851798
 74
     0
  0
LTYPE
  5
37
330
5
100
AcDbSymbolTableRecord
100
AcDbLinetypeTableRecord
  2
DASHDOTX2
 70
     0
  3
CADPAC LINETYPE
 72
    65
 73
     4
 40
10.37037037037032
 49
5.18518518518519
 74
     0
 49
-1.728395061728378
 74
     0
 49
1.728395061728378
 74
     0
 49
-1.728395061728378
 74
     0
  0
LTYPE
  5
38
330
5
100
AcDbSymbolTableRecord
100
AcDbLinetypeTableRecord
  2
DASHDOT
 70
     0
  3
CADPAC LINETYPE
 72
    65
 73
     4
 40
5.185185185185219
 49
2.592592592592609
 74
     0
 49
-0.8641975308642032
 74
     0
 49
0.8641975308642032
 74
     0
 49
-0.8641975308642032
 74
     0
  0
LTYPE
  5
39
330
5
100
AcDbSymbolTableRecord
100
AcDbLinetypeTableRecord
  2
DASHDOT2
 70
     0
  3
CADPAC LINETYPE
 72
    65
 73
     4
 40
3.327160493827182
 49
1.944444444444457
 74
     0
 49
-0.6481481481481524
 74
     0
 49
0.0864197530864203
 74
     0
 49
-0.6481481481481524
 74
     0
  0
LTYPE
  5
3A
330
5
100
AcDbSymbolTableRecord
100
AcDbLinetypeTableRecord
  2
DIVIDEX2
 70
     0
  3
CADPAC LINETYPE
 72
    65
 73
     6
 40
13.82716049382708
 49
5.18518518518519
 74
     0
 49
-1.728395061728378
 74
     0
 49
1.728395061728378
 74
     0
 49
-1.728395061728378
 74
     0
 49
1.728395061728378
 74
     0
 49
-1.728395061728378
 74
     0
  0
LTYPE
  5
3B
330
5
100
AcDbSymbolTableRecord
100
AcDbLinetypeTableRecord
  2
DIVIDE
 70
     0
  3
CADPAC LINETYPE
 72
    65
 73
     6
 40
6.913580246913625
 49
2.592592592592609
 74
     0
 49
-0.8641975308642032
 74
     0
 49
0.8641975308642032
 74
     0
 49
-0.8641975308642032
 74
     0
 49
0.8641975308642032
 74
     0
 49
-0.8641975308642032
 74
     0
  0
LTYPE
  5
3C
330
5
100
AcDbSymbolTableRecord
100
AcDbLinetypeTableRecord
  2
DIVIDE2
 70
     0
  3
CADPAC LINETYPE
 72
    65
 73
     6
 40
5.185185185185219
 49
1.944444444444457
 74
     0
 49
-0.6481481481481524
 74
     0
 49
0.6481481481481524
 74
     0
 49
-0.6481481481481524
 74
     0
 49
0.6481481481481524
 74
     0
 49
-0.6481481481481524
 74
     0
  0
LTYPE
  5
3D
330
5
100
AcDbSymbolTableRecord
100
AcDbLinetypeTableRecord
  2
BORDERX2
 70
     0
  3
CADPAC LINETYPE
 72
    65
 73
     6
 40
9.452160493827098
 49
2.700617283950599
 74
     0
 49
-1.3503086419753
 74
     0
 49
2.700617283950599
 74
     0
 49
-1.3503086419753
 74
     0
 49
0.0
 74
     0
 49
-1.3503086419753
 74
     0
  0
LTYPE
  5
3E
330
5
100
AcDbSymbolTableRecord
100
AcDbLinetypeTableRecord
  2
BORDER
 70
     0
  3
CADPAC LINETYPE
 72
    65
 73
     6
 40
7.561728395061678
 49
2.160493827160479
 74
     0
 49
-1.08024691358024
 74
     0
 49
2.160493827160479
 74
     0
 49
-1.08024691358024
 74
     0
 49
0.0
 74
     0
 49
-1.08024691358024
 74
     0
  0
LTYPE
  5
3F
330
5
100
AcDbSymbolTableRecord
100
AcDbLinetypeTableRecord
  2
BORDER2
 70
     0
  3
CADPAC LINETYPE
 72
    65
 73
     6
 40
5.617283950617221
 49
1.728395061728378
 74
     0
 49
-1.080246913580226
 74
     0
 49
0.6481481481481524
 74
     0
 49
-1.080246913580226
 74
     0
 49
0.0
 74
     0
 49
-1.08024691358024
 74
     0
  0
LTYPE
  5
40
330
5
100
AcDbSymbolTableRecord
100
AcDbLinetypeTableRecord
  2
PHANTOMX2
 70
     0
  3
CADPAC LINETYPE
 72
    65
 73
     6
 40
8.101851851851798
 49
2.700617283950599
 74
     0
 49
-1.08024691358024
 74
     0
 49
1.08024691358024
 74
     0
 49
-1.08024691358024
 74
     0
 49
1.08024691358024
 74
     0
 49
-1.08024691358024
 74
     0
  0
LTYPE
  5
41
330
5
100
AcDbSymbolTableRecord
100
AcDbLinetypeTableRecord
  2
PHANTOM
 70
     0
  3
CADPAC LINETYPE
 72
    65
 73
     6
 40
6.697530864197486
 49
2.160493827160479
 74
     0
 49
-1.08024691358024
 74
     0
 49
0.6481481481481438
 74
     0
 49
-1.08024691358024
 74
     0
 49
0.6481481481481438
 74
     0
 49
-1.08024691358024
 74
     0
  0
LTYPE
  5
42
330
5
100
AcDbSymbolTableRecord
100
AcDbLinetypeTableRecord
  2
PHANTOM2
 70
     0
  3
CADPAC LINETYPE
 72
    65
 73
     6
 40
5.725308641975271
 49
1.62037037037036
 74
     0
 49
-1.08024691358024
 74
     0
 49
0.4320987654320959
 74
     0
 49
-1.08024691358024
 74
     0
 49
0.4320987654320959
 74
     0
 49
-1.08024691358024
 74
     0
  0
LTYPE
  5
43
330
5
100
AcDbSymbolTableRecord
100
AcDbLinetypeTableRecord
  2
ACAD_ISO06W100
 70
     0
  3
CADPAC LINETYPE
 72
    65
 73
     8
 40
11.45061728395055
 49
5.18518518518519
 74
     0
 49
-1.080246913580226
 74
     0
 49
0.6481481481481524
 74
     0
 49
-1.080246913580226
 74
     0
 49
0.6481481481481524
 74
     0
 49
-1.080246913580226
 74
     0
 49
0.6481481481481524
 74
     0
 49
-1.080246913580226
 74
     0
  0
LTYPE
  5
44
330
5
100
AcDbSymbolTableRecord
100
AcDbLinetypeTableRecord
  2
ACAD_ISO13W100
 70
     0
  3
CADPAC LINETYPE
 72
    65
 73
     8
 40
8.641975308641918
 49
2.160493827160479
 74
     0
 49
-1.08024691358024
 74
     0
 49
2.160493827160479
 74
     0
 49
-1.08024691358024
 74
     0
 49
0.0
 74
     0
 49
-1.08024691358024
 74
     0
 49
0.0
 74
     0
 49
-1.08024691358024
 74
     0
  0
LTYPE
  5
45
330
5
100
AcDbSymbolTableRecord
100
AcDbLinetypeTableRecord
  2
ACAD_ISO14W100
 70
     0
  3
CADPAC LINETYPE
 72
    65
 73
     8
 40
6.481481481481438
 49
2.160493827160479
 74
     0
 49
-1.08024691358024
 74
     0
 49
0.0
 74
     0
 49
-1.08024691358024
 74
     0
 49
0.0
 74
     0
 49
-1.08024691358024
 74
     0
 49
0.0
 74
     0
 49
-1.08024691358024
 74
     0
  0
ENDTAB
  0
TABLE
  2
LAYER
  5
2
330
0
100
AcDbSymbolTable
 70
     3
  0
LAYER
  5
10
330
2
100
AcDbSymbolTableRecord
100
AcDbLayerTableRecord
  2
0
 70
     0
 62
     7
  6
CONTINUOUS
  0
LAYER
  5
46
330
2
100
AcDbSymbolTableRecord
100
AcDbLayerTableRecord
  2
LAYER0001
 70
     0
 62
     7
  6
CONTINUOUS
  0
LAYER
  5
47
330
2
100
AcDbSymbolTableRecord
100
AcDbLayerTableRecord
  2
LAYER0112
 70
     0
 62
     7
  6
CONTINUOUS
  0
ENDTAB
  0
TABLE
  2
STYLE
  5
3
330
0
100
AcDbSymbolTable
 70
     2
  0
STYLE
  5
11
330
3
100
AcDbSymbolTableRecord
100
AcDbTextStyleTableRecord
  2
STANDARD
 70
     0
 40
0.0
 41
1.0
 50
0.0
 71
     0
 42
0.2
  3
txt
  4

  0
STYLE
  5
D9
330
3
100
AcDbSymbolTableRecord
100
AcDbTextStyleTableRecord
  2
FDASTYLE0
 70
     0
 40
2.0
 41
0.7999999999999995
 50
0.0
 71
     0
 42
0.2
  3
txt.shx
  4
bigfont
  0
ENDTAB
  0
TABLE
  2
VIEW
  5
6
330
0
100
AcDbSymbolTable
 70
     0
  0
ENDTAB
  0
TABLE
  2
UCS
  5
7
330
0
100
AcDbSymbolTable
 70
     0
  0
ENDTAB
  0
TABLE
  2
APPID
  5
9
330
0
100
AcDbSymbolTable
 70
     2
  0
APPID
  5
12
330
9
100
AcDbSymbolTableRecord
100
AcDbRegAppTableRecord
  2
ACAD
 70
     0
  0
APPID
  5
2A
330
9
100
AcDbSymbolTableRecord
100
AcDbRegAppTableRecord
  2
DAFUSIONOUT
 70
     0
  0
ENDTAB
  0
TABLE
  2
DIMSTYLE
  5
A
330
0
100
AcDbSymbolTable
 70
     1
  0
DIMSTYLE
105
27
330
A
100
AcDbSymbolTableRecord
100
AcDbDimStyleTableRecord
  2
STANDARD
 70
     0
  3

  4

  5

  6

  7

 40
1.0
 41
0.18
 42
0.0625
 43
0.38
 44
0.18
 45
0.0
 46
0.0
 47
0.0
 48
0.0
140
0.18
141
0.09
142
0.0
143
25.4
144
1.0
145
0.0
146
1.0
147
0.09
 71
     0
 72
     0
 73
     1
 74
     1
 75
     0
 76
     0
 77
     0
 78
     0
170
     0
171
     2
172
     0
173
     0
174
     0
175
     0
176
     0
177
     0
178
     0
270
     2
271
     4
272
     4
273
     2
274
     2
340
11
275
     0
280
     0
281
     0
282
     0
283
     1
284
     0
285
     0
286
     0
287
     3
288
     0
  0
ENDTAB
  0
TABLE
  2
BLOCK_RECORD
  5
1
330
0
100
AcDbSymbolTable
 70
     2
  0
BLOCK_RECORD
  5
1F
330
1
100
AcDbSymbolTableRecord
100
AcDbBlockTableRecord
  2
*MODEL_SPACE
  0
BLOCK_RECORD
  5
1B
330
1
100
AcDbSymbolTableRecord
100
AcDbBlockTableRecord
  2
*PAPER_SPACE
  0
BLOCK_RECORD
  5
5E
330
1
100
AcDbSymbolTableRecord
100
AcDbBlockTableRecord
  2
_OPEN30
  0
ENDTAB
  0
ENDSEC
  0
SECTION
  2
BLOCKS
  0
BLOCK
  5
20
330
1F
100
AcDbEntity
  8
0
100
AcDbBlockBegin
  2
*MODEL_SPACE
 70
     0
 71
     0
 10
0.0
 20
0.0
 30
0.0
  3
*MODEL_SPACE
  1

  0
ENDBLK
  5
21
330
1F
100
AcDbEntity
  8
0
100
AcDbBlockEnd
  0
BLOCK
  5
1C
330
1B
100
AcDbEntity
 67
     1
  8
0
100
AcDbBlockBegin
  2
*PAPER_SPACE
 70
     0
 71
     0
 10
0.0
 20
0.0
 30
0.0
  3
*PAPER_SPACE
  1

  0
ENDBLK
  5
1D
330
1B
100
AcDbEntity
 67
     1
  8
0
100
AcDbBlockEnd
  0
BLOCK
  5
5F
330
5E
100
AcDbEntity
  8
0
100
AcDbBlockBegin
  2
_OPEN30
 70
     0
 71
     0
 10
0.0
 20
0.0
 30
0.0
  3
_OPEN30
  1

  0
LINE
  5
61
330
5E
100
AcDbEntity
  8
0
  6
BYBLOCK
 62
     0
100
AcDbLine
 10
-1.0
 20
0.267949
 30
0.0
 11
0.0
 21
0.0
 31
0.0
  0
LINE
  5
62
330
5E
100
AcDbEntity
  8
0
  6
BYBLOCK
 62
     0
100
AcDbLine
 10
0.0
 20
0.0
 30
0.0
 11
-1.0
 21
-0.267949
 31
0.0
  0
LINE
  5
63
330
5E
100
AcDbEntity
  8
0
  6
BYBLOCK
 62
     0
100
AcDbLine
 10
0.0
 20
0.0
 30
0.0
 11
-1.0
 21
0.0
 31
0.0
  0
ENDBLK
  5
60
330
5E
100
AcDbEntity
  8
0
100
AcDbBlockEnd
  0
ENDSEC
  0
SECTION
  2
ENTITIES
  0
LINE
  5
49
330
1F
100
AcDbEntity
  8
0
  6
CENTER
 62
     9
100
AcDbLine
 10
43.72368251273392
 20
-7.16736514512321
 30
0.0
 11
43.72368251273392
 21
6.83263485487679
 31
0.0
  0
LINE
  5
4A
330
1F
100
AcDbEntity
  8
0
  6
CENTER
 62
     9
100
AcDbLine
 10
36.72368251273392
 20
-0.1673651451232026
 30
0.0
 11
50.72368251273392
 21
-0.1673651451232097
 31
0.0
  0
LINE
  5
4B
330
1F
100
AcDbEntity
  8
0
  6
CENTER
 62
     9
100
AcDbLine
 10
42.72368251273392
 20
-3.883546099293174
 30
0.0
 11
44.72368251273392
 21
-3.883546099293174
 31
0.0
  0
LINE
  5
4C
330
1F
100
AcDbEntity
  8
0
  6
CENTER
 62
     9
100
AcDbLine
 10
42.72368251273392
 20
3.548815571131595
 30
0.0
 11
44.72368251273392
 21
3.548815571131595
 31
0.0
  0
LINE
  5
4D
330
1F
100
AcDbEntity
  8
0
  6
CENTER
 62
     9
100
AcDbLine
 10
-18.27631748726608
 20
-0.167365145123223
 30
0.0
 11
12.72368251273392
 21
-0.167365145123223
 31
0.0
  0
LINE
  5
4E
330
1F
100
AcDbEntity
  8
0
  6
CENTER
 62
     9
100
AcDbLine
 10
-38.49448623454006
 20
6.832634854876748
 30
0.0
 11
-38.49448623454006
 21
-7.167365145123252
 31
0.0
  0
LINE
  5
4F
330
1F
100
AcDbEntity
  8
0
  6
CENTER
 62
     9
100
AcDbLine
 10
-31.49448623454006
 20
-0.1673651451232523
 30
0.0
 11
-45.49448623454006
 21
-0.1673651451232523
 31
0.0
  0
LINE
  5
50
330
1F
100
AcDbEntity
  8
0
  6
CENTER
 62
     9
100
AcDbLine
 10
-37.29448623454006
 20
-4.417365145123252
 30
0.0
 11
-39.69448623454007
 21
-4.417365145123252
 31
0.0
  0
LINE
  5
51
330
1F
100
AcDbEntity
  8
0
  6
CENTER
 62
     9
100
AcDbLine
 10
-37.29448623454006
 20
4.082634854876741
 30
0.0
 11
-39.69448623454007
 21
4.082634854876741
 31
0.0
  0
LINE
  5
52
330
1F
100
AcDbEntity
  8
0
  6
CENTER
 62
     9
100
AcDbLine
 10
-17.56703390590803
 20
0.8601348548767867
 30
0.0
 11
-15.30977077873701
 21
0.8601348548767867
 31
0.0
  0
LINE
  5
53
330
1F
100
AcDbEntity
  8
0
  6
CENTER
 62
     9
100
AcDbLine
 10
-17.56703390590803
 20
-1.194865145123192
 30
0.0
 11
-15.30977077873701
 21
-1.194865145123206
 31
0.0
  0
CIRCLE
  5
54
330
1F
100
AcDbEntity
  8
0
  6
CONTINUOUS
 62
     9
100
AcDbCircle
 10
-38.49448623454006
 20
4.082634854876748
 30
0.0
 40
0.7
  0
CIRCLE
  5
55
330
1F
100
AcDbEntity
  8
0
  6
CONTINUOUS
 62
     9
100
AcDbCircle
 10
-38.49448623454006
 20
-4.417365145123252
 30
0.0
 40
0.7
  0
LINE
  5
56
330
1F
100
AcDbEntity
  8
0
  6
CONTINUOUS
 62
     9
100
AcDbLine
 10
-40.19448623454007
 20
-4.417365145123252
 30
0.0
 11
-47.99448623454006
 21
-4.417365145123252
 31
0.0
  0
LINE
  5
57
330
1F
100
AcDbEntity
  8
0
  6
CONTINUOUS
 62
     9
100
AcDbLine
 10
-40.19448623454007
 20
4.082634854876748
 30
0.0
 11
-47.99448623454006
 21
4.082634854876748
 31
0.0
  0
LINE
  5
58
330
1F
100
AcDbEntity
  8
0
  6
CONTINUOUS
 62
     9
100
AcDbLine
 10
-36.89309880656763
 20
-11.16736518047457
 30
0.0
 11
-14.50717842997285
 21
-11.16736518047457
 31
0.0
  0
LINE
  5
59
330
1F
100
AcDbEntity
  8
0
  6
CONTINUOUS
 62
     9
100
AcDbLine
 10
21.54149699468741
 20
4.132634854876788
 30
0.0
 11
21.8770902150264
 21
2.332634854876805
 31
0.0
  0
LINE
  5
5A
330
1F
100
AcDbEntity
  8
0
  6
CONTINUOUS
 62
     9
100
AcDbLine
 10
22.20723126042168
 20
4.132634854876788
 30
0.0
 11
22.54282448076066
 21
2.332634854876805
 31
0.0
  0
LINE
  5
5B
330
1F
100
AcDbEntity
  8
0
  6
CONTINUOUS
 62
     9
100
AcDbLine
 10
21.54149699468742
 20
-2.667365145123224
 30
0.0
 11
21.8770902150264
 21
-4.467365145123207
 31
0.0
  0
LINE
  5
5C
330
1F
100
AcDbEntity
  8
0
  6
CONTINUOUS
 62
     9
100
AcDbLine
 10
22.20723126042169
 20
-2.667365145123224
 30
0.0
 11
22.54282448076067
 21
-4.467365145123207
 31
0.0
  0
LINE
  5
5D
330
1F
100
AcDbEntity
  8
0
  6
CONTINUOUS
 62
     9
100
AcDbLine
 10
-47.49448623454006
 20
4.082634854876748
 30
0.0
 11
-47.49448623454006
 21
-4.417365145123252
 31
0.0
  0
INSERT
  5
64
330
1F
100
AcDbEntity
  8
0
 62
     9
100
AcDbBlockReference
  2
_OPEN30
 10
-47.49448623454006
 20
4.082634854876748
 30
0.0
 41
1.500001393912182
 42
1.499994636989232
 50
90.0
  0
INSERT
  5
65
330
1F
100
AcDbEntity
  8
0
 62
     9
100
AcDbBlockReference
  2
_OPEN30
 10
-47.49448623454006
 20
-4.417365145123252
 30
0.0
 41
1.500001393912182
 42
1.499994636989232
 50
270.0
  0
LINE
  5
66
330
1F
100
AcDbEntity
  8
0
  6
CONTINUOUS
 62
     9
100
AcDbLine
 10
-38.3329015033009
 20
-5.09846012721486
 30
0.0
 11
-36.89309880656763
 21
-11.16736518047456
 31
0.0
  0
INSERT
  5
67
330
1F
100
AcDbEntity
  8
0
 62
     9
100
AcDbBlockReference
  2
_OPEN30
 10
-38.3329015033009
 20
-5.09846012721486
 30
0.0
 41
1.500001393912182
 42
1.499994636989232
 50
103.3462561135469
  0
LINE
  5
68
330
1F
100
AcDbEntity
  8
0
  6
CONTINUOUS
 62
     9
100
AcDbLine
 10
15.63257251273392
 20
10.83263485487677
 30
0.0
 11
13.55383129262375
 21
3.632634854876793
 31
0.0
  0
INSERT
  5
69
330
1F
100
AcDbEntity
  8
0
 62
     9
100
AcDbBlockReference
  2
_OPEN30
 10
13.55383129262375
 20
3.632634854876793
 30
0.0
 41
1.500001393912182
 42
1.499994636989232
 50
253.8958276538433
  0
LINE
  5
6A
330
1F
100
AcDbEntity
  8
0
  6
CONTINUOUS
 62
     9
100
AcDbLine
 10
15.63257251273394
 20
-11.16736514512317
 30
0.0
 11
13.55383129262376
 21
-3.967365145123197
 31
0.0
  0
INSERT
  5
6B
330
1F
100
AcDbEntity
  8
0
 62
     9
100
AcDbBlockReference
  2
_OPEN30
 10
13.55383129262376
 20
-3.967365145123197
 30
0.0
 41
1.500001393912182
 42
1.499994636989232
 50
106.1041723461568
  0
CIRCLE
  5
6C
330
1F
100
AcDbEntity
  8
0
  6
CONTINUOUS
 62
     3
100
AcDbCircle
 10
43.72368261452098
 20
-3.883546099293174
 30
0.0
 40
0.5
  0
CIRCLE
  5
6D
330
1F
100
AcDbEntity
  8
0
  6
CONTINUOUS
 62
     3
100
AcDbCircle
 10
43.72368258919246
 20
3.548815571131595
 30
0.0
 40
0.5
  0
LINE
  5
6E
330
1F
100
AcDbEntity
  8
0
  6
CONTINUOUS
 62
     3
100
AcDbLine
 10
40.71328387200308
 20
2.8326347716466
 30
0.0
 11
46.73408108186317
 21
2.832634771646607
 31
0.0
  0
LINE
  5
6F
330
1F
100
AcDbEntity
  8
0
  6
CONTINUOUS
 62
     3
100
AcDbLine
 10
40.71328379246703
 20
-3.1673652283534
 30
0.0
 11
46.73408116139922
 21
-3.167365228353393
 31
0.0
  0
CIRCLE
  5
70
330
1F
100
AcDbEntity
  8
0
  6
CONTINUOUS
 62
     3
100
AcDbCircle
 10
43.72368258848493
 20
-0.1673652283533933
 30
0.0
 40
6.0
  0
CIRCLE
  5
71
330
1F
100
AcDbEntity
  8
0
  6
CONTINUOUS
 62
     3
100
AcDbCircle
 10
43.72368256422998
 20
-0.1673652577973748
 30
0.0
 40
5.400000037626732
  0
LINE
  5
72
330
1F
100
AcDbEntity
  8
0
  6
CONTINUOUS
 62
     3
100
AcDbLine
 10
43.3558468717334
 20
-4.717307096309074
 30
0.0
 11
43.11246440485609
 21
-5.268974020956524
 31
0.0
  0
ARC
  5
73
330
1F
100
AcDbEntity
  8
0
  6
CONTINUOUS
 62
     3
100
AcDbCircle
 10
43.29544796515585
 20
-5.349702062305408
 30
0.0
 40
0.2
100
AcDbArc
 50
156.194056471016
 51
265.2761812334437
  0
ARC
  5
74
330
1F
100
AcDbEntity
  8
0
  6
CONTINUOUS
 62
     3
100
AcDbCircle
 10
43.15133583369509
 20
-4.933120060054296
 30
0.0
 40
0.1
100
AcDbArc
 50
336.1940564710168
 51
443.1518197303275
  0
ARC
  5
75
330
1F
100
AcDbEntity
  8
0
  6
CONTINUOUS
 62
     3
100
AcDbCircle
 10
43.72368262737849
 20
-0.1673652250087123
 30
0.0
 40
4.7
100
AcDbArc
 50
229.236293130319
 51
263.1518197303273
  0
LINE
  5
76
330
1F
100
AcDbEntity
  8
0
  6
CONTINUOUS
 62
     3
100
AcDbLine
 10
40.61109346803976
 20
-3.506386474256491
 30
0.0
 11
40.367711001346
 21
-4.058053398487889
 31
0.0
  0
ARC
  5
77
330
1F
100
AcDbEntity
  8
0
  6
CONTINUOUS
 62
     3
100
AcDbCircle
 10
40.18472744104626
 20
-3.977325357139026
 30
0.0
 40
0.2
100
AcDbArc
 50
227.1119316262382
 51
336.1940564710163
  0
ARC
  5
78
330
1F
100
AcDbEntity
  8
0
  6
CONTINUOUS
 62
     3
100
AcDbCircle
 10
40.5895659903012
 20
-3.80292747935059
 30
0.0
 40
0.1
100
AcDbArc
 50
49.23629313031965
 51
156.1940564710155
  0
ARC
  5
79
330
1F
100
AcDbEntity
  8
0
  6
CONTINUOUS
 62
     3
100
AcDbCircle
 10
40.70258524818964
 20
-3.546750494930937
 30
0.0
 40
0.1
100
AcDbArc
 50
49.23629313031965
 51
156.1940564710155
  0
ARC
  5
7A
330
1F
100
AcDbEntity
  8
0
  6
CONTINUOUS
 62
     3
100
AcDbCircle
 10
43.26435509158352
 20
-4.676943075634636
 30
0.0
 40
0.1
100
AcDbArc
 50
336.1940564710168
 51
443.1518197303275
  0
ARC
  5
7B
330
1F
100
AcDbEntity
  8
0
  6
CONTINUOUS
 62
     3
100
AcDbCircle
 10
43.83670188526691
 20
0.0888117594109552
 30
0.0
 40
4.7
100
AcDbArc
 50
229.236293130319
 51
263.1518197303273
  0
ARC
  5
7C
330
1F
100
AcDbEntity
  8
0
  6
CONTINUOUS
 62
     3
100
AcDbCircle
 10
43.72368263959204
 20
-0.1673652090731288
 30
0.0
 40
5.1
100
AcDbArc
 50
229.089421200302
 51
263.2986915535896
  0
LINE
  5
7D
330
1F
100
AcDbEntity
  8
0
  6
CONTINUOUS
 62
     3
100
AcDbLine
 10
44.0915182843146
 20
4.382576713963626
 30
0.0
 11
44.3349007511919
 21
4.934243638611076
 31
0.0
  0
ARC
  5
7E
330
1F
100
AcDbEntity
  8
0
  6
CONTINUOUS
 62
     3
100
AcDbCircle
 10
44.15191719089214
 20
5.014971679959952
 30
0.0
 40
0.2
100
AcDbArc
 50
336.194056471016
 51
445.2761812334437
  0
ARC
  5
7F
330
1F
100
AcDbEntity
  8
0
  6
CONTINUOUS
 62
     3
100
AcDbCircle
 10
44.29602932235292
 20
4.598389677708848
 30
0.0
 40
0.1
100
AcDbArc
 50
156.1940564710169
 51
263.1518197303275
  0
ARC
  5
80
330
1F
100
AcDbEntity
  8
0
  6
CONTINUOUS
 62
     3
100
AcDbCircle
 10
43.72368252866951
 20
-0.1673651573367359
 30
0.0
 40
4.7
100
AcDbArc
 50
49.23629313031898
 51
83.15181973032725
  0
LINE
  5
81
330
1F
100
AcDbEntity
  8
0
  6
CONTINUOUS
 62
     3
100
AcDbLine
 10
46.83627168800823
 20
3.171656091911043
 30
0.0
 11
47.07965415470199
 21
3.723323016142462
 31
0.0
  0
ARC
  5
82
330
1F
100
AcDbEntity
  8
0
  6
CONTINUOUS
 62
     3
100
AcDbCircle
 10
47.26263771500174
 20
3.642594974793585
 30
0.0
 40
0.2
100
AcDbArc
 50
47.11193162623816
 51
156.1940564710163
  0
ARC
  5
83
330
1F
100
AcDbEntity
  8
0
  6
CONTINUOUS
 62
     3
100
AcDbCircle
 10
46.85779916574678
 20
3.468197097005149
 30
0.0
 40
0.1
100
AcDbArc
 50
229.2362931303197
 51
336.1940564710155
  0
ARC
  5
84
330
1F
100
AcDbEntity
  8
0
  6
CONTINUOUS
 62
     3
100
AcDbCircle
 10
46.74477990785835
 20
3.212020112585488
 30
0.0
 40
0.1
100
AcDbArc
 50
229.2362931303197
 51
336.1940564710155
  0
ARC
  5
85
330
1F
100
AcDbEntity
  8
0
  6
CONTINUOUS
 62
     3
100
AcDbCircle
 10
44.18301006446449
 20
4.342212693289195
 30
0.0
 40
0.1
100
AcDbArc
 50
156.1940564710169
 51
263.1518197303275
  0
ARC
  5
86
330
1F
100
AcDbEntity
  8
0
  6
CONTINUOUS
 62
     3
100
AcDbCircle
 10
43.61066327078108
 20
-0.4235421417563892
 30
0.0
 40
4.7
100
AcDbArc
 50
49.23629313031898
 51
83.15181973032725
  0
ARC
  5
87
330
1F
100
AcDbEntity
  8
0
  6
CONTINUOUS
 62
     3
100
AcDbCircle
 10
43.72368251645597
 20
-0.1673651732723194
 30
0.0
 40
5.1
100
AcDbArc
 50
49.08942120030194
 51
83.29869155358958
  0
LINE
  5
88
330
1F
100
AcDbEntity
  8
0
  6
CONTINUOUS
 62
     3
100
AcDbLine
 10
11.72368251273392
 20
-2.667365083892864
 30
0.0
 11
11.72368251273392
 21
2.332634793646452
 31
0.0
  0
ARC
  5
89
330
1F
100
AcDbEntity
  8
0
  6
CONTINUOUS
 62
     3
100
AcDbCircle
 10
-13.47631748726607
 20
4.632634854876773
 30
0.0
 40
1.2
100
AcDbArc
 50
90.00000000000007
 51
180.0000000000001
  0
LINE
  5
8A
330
1F
100
AcDbEntity
  8
0
  6
CONTINUOUS
 62
     3
100
AcDbLine
 10
-14.67631748726609
 20
4.632634854876773
 30
0.0
 11
-14.67631748726606
 21
-4.967365145123221
 31
0.0
  0
LINE
  5
8B
330
1F
100
AcDbEntity
  8
0
  6
CONTINUOUS
 62
     3
100
AcDbLine
 10
-15.27631748726608
 20
1.132634854876773
 30
0.0
 11
-15.17631748726609
 21
1.132634854876773
 31
0.0
  0
LINE
  5
8C
330
1F
100
AcDbEntity
  8
0
  6
CONTINUOUS
 62
     3
100
AcDbLine
 10
-15.27631748726608
 20
1.132634854876773
 30
0.0
 11
-15.27631748726608
 21
-1.467365145123221
 31
0.0
  0
LINE
  5
8D
330
1F
100
AcDbEntity
  8
0
  6
CONTINUOUS
 62
     3
100
AcDbLine
 10
-15.17631748726609
 20
1.732634854876768
 30
0.0
 11
-15.17631748726609
 21
-2.067365145123215
 31
0.0
  0
LINE
  5
8E
330
1F
100
AcDbEntity
  8
0
  6
CONTINUOUS
 62
     3
100
AcDbLine
 10
-15.07631748726609
 20
1.832634854876762
 30
0.0
 11
-15.17631748726609
 21
1.732634854876768
 31
0.0
  0
LINE
  5
8F
330
1F
100
AcDbEntity
  8
0
  6
CONTINUOUS
 62
     3
100
AcDbLine
 10
-15.07631748726609
 20
1.832634854876762
 30
0.0
 11
-14.67631748726606
 21
1.832634854876762
 31
0.0
  0
LINE
  5
90
330
1F
100
AcDbEntity
  8
0
  6
CONTINUOUS
 62
     3
100
AcDbLine
 10
11.72368251273392
 20
2.332634793646452
 30
0.0
 11
11.6236825127339
 21
2.332634793646452
 31
0.0
  0
LINE
  5
91
330
1F
100
AcDbEntity
  8
0
  6
CONTINUOUS
 62
     3
100
AcDbLine
 10
8.484452028192585
 20
5.832634890228132
 30
0.0
 11
8.484452028192585
 21
-6.167365180474551
 31
0.0
  0
LINE
  5
92
330
1F
100
AcDbEntity
  8
0
  6
CONTINUOUS
 62
     3
100
AcDbLine
 10
9.523682512733906
 20
5.232634854876789
 30
0.0
 11
9.523682512733934
 21
-5.567365145123208
 31
0.0
  0
LINE
  5
93
330
1F
100
AcDbEntity
  8
0
  6
CONTINUOUS
 62
     3
100
AcDbLine
 10
11.02368251273391
 20
5.232634854876796
 30
0.0
 11
11.02368251273391
 21
-5.567365145123208
 31
0.0
  0
LINE
  5
94
330
1F
100
AcDbEntity
  8
0
  6
CONTINUOUS
 62
     3
100
AcDbLine
 10
11.6236825127339
 20
5.13263491610714
 30
0.0
 11
11.62368251273393
 21
-5.467365145123214
 31
0.0
  0
LINE
  5
95
330
1F
100
AcDbEntity
  8
0
  6
CONTINUOUS
 62
     3
100
AcDbLine
 10
8.484452028192585
 20
5.832634890228132
 30
0.0
 11
-13.4763174317948
 21
5.832634890228139
 31
0.0
  0
ARC
  5
96
330
1F
100
AcDbEntity
  8
0
  6
CONTINUOUS
 62
     3
100
AcDbCircle
 10
-13.47631748726607
 20
-4.967365145123221
 30
0.0
 40
1.2
100
AcDbArc
 50
180.0
 51
270.0
  0
LINE
  5
97
330
1F
100
AcDbEntity
  8
0
  6
CONTINUOUS
 62
     3
100
AcDbLine
 10
8.484452028192585
 20
-6.167365180474551
 30
0.0
 11
-13.4763174317948
 21
-6.167365180474572
 31
0.0
  0
LINE
  5
98
330
1F
100
AcDbEntity
  8
0
  6
CONTINUOUS
 62
     3
100
AcDbLine
 10
-15.27631748726608
 20
-1.467365145123221
 30
0.0
 11
-15.17631748726609
 21
-1.467365145123221
 31
0.0
  0
LINE
  5
99
330
1F
100
AcDbEntity
  8
0
  6
CONTINUOUS
 62
     3
100
AcDbLine
 10
-15.07631748726609
 20
-2.16736514512321
 30
0.0
 11
-15.17631748726609
 21
-2.067365145123215
 31
0.0
  0
LINE
  5
9A
330
1F
100
AcDbEntity
  8
0
  6
CONTINUOUS
 62
     3
100
AcDbLine
 10
-15.07631748726609
 20
-2.16736514512321
 30
0.0
 11
-14.67631748726606
 21
-2.16736514512321
 31
0.0
  0
LINE
  5
9B
330
1F
100
AcDbEntity
  8
0
  6
CONTINUOUS
 62
     3
100
AcDbLine
 10
11.72368251273392
 20
-2.667365083892864
 30
0.0
 11
11.62368251273393
 21
-2.667365083892864
 31
0.0
  0
CIRCLE
  5
9C
330
1F
100
AcDbEntity
  8
0
  6
CONTINUOUS
 62
     3
100
AcDbCircle
 10
-38.49448623454006
 20
-0.1673651451232523
 30
0.0
 40
6.0
  0
CIRCLE
  5
9D
330
1F
100
AcDbEntity
  8
0
  6
CONTINUOUS
 62
     3
100
AcDbCircle
 10
-38.49448623454006
 20
-0.1673651451232523
 30
0.0
 40
2.0
  0
CIRCLE
  5
9E
330
1F
100
AcDbEntity
  8
0
  6
CONTINUOUS
 62
     3
100
AcDbCircle
 10
-38.49448623454006
 20
-0.1673651451232523
 30
0.0
 40
1.3
  0
CIRCLE
  5
9F
330
1F
100
AcDbEntity
  8
0
  6
CONTINUOUS
 62
     3
100
AcDbCircle
 10
-38.49448623454006
 20
-0.1673651451232523
 30
0.0
 40
0.5
  0
CIRCLE
  5
A0
330
1F
100
AcDbEntity
  8
0
  6
CONTINUOUS
 62
     3
100
AcDbCircle
 10
-38.49448623454006
 20
4.082634854876748
 30
0.0
 40
0.5375
  0
CIRCLE
  5
A1
330
1F
100
AcDbEntity
  8
0
  6
CONTINUOUS
 62
     3
100
AcDbCircle
 10
-38.49448623454006
 20
-4.417365145123252
 30
0.0
 40
0.5375
  0
LINE
  5
A2
330
1F
100
AcDbEntity
  8
0
  6
CONTINUOUS
 62
     3
100
AcDbLine
 10
11.6236825127339
 20
3.188606369986761
 30
0.0
 11
11.02368251273391
 21
3.188606369986761
 31
0.0
  0
LINE
  5
A3
330
1F
100
AcDbEntity
  8
0
  6
CONTINUOUS
 62
     3
100
AcDbLine
 10
11.6236825127339
 20
0.460869406176915
 30
0.0
 11
11.02368251273391
 21
0.460869406176915
 31
0.0
  0
LINE
  5
A4
330
1F
100
AcDbEntity
  8
0
  6
CONTINUOUS
 62
     3
100
AcDbLine
 10
11.6236825127339
 20
-4.177325357139029
 30
0.0
 11
11.02368251273391
 21
-4.177325357139029
 31
0.0
  0
LINE
  5
A5
330
1F
100
AcDbEntity
  8
0
  6
CONTINUOUS
 62
     3
100
AcDbLine
 10
-17.27631748726608
 20
1.010134854876792
 30
0.0
 11
-15.57631748726608
 21
1.010134854876792
 31
0.0
  0
LINE
  5
A6
330
1F
100
AcDbEntity
  8
0
  6
CONTINUOUS
 62
     3
100
AcDbLine
 10
-17.27631748726608
 20
-1.344865145123197
 30
0.0
 11
-17.27631748726608
 21
1.010134854876792
 31
0.0
  0
LINE
  5
A7
330
1F
100
AcDbEntity
  8
0
  6
CONTINUOUS
 62
     3
100
AcDbLine
 10
-17.27631748726608
 20
-1.344865145123197
 30
0.0
 11
-15.57631748726608
 21
-1.344865145123197
 31
0.0
  0
LINE
  5
A8
330
1F
100
AcDbEntity
  8
0
  6
CONTINUOUS
 62
     3
100
AcDbLine
 10
-15.57631748726608
 20
1.132634854876795
 30
0.0
 11
-15.27631748726608
 21
1.132634854876795
 31
0.0
  0
LINE
  5
A9
330
1F
100
AcDbEntity
  8
0
  6
CONTINUOUS
 62
     3
100
AcDbLine
 10
-15.57631748726608
 20
-1.4673651451232
 30
0.0
 11
-15.57631748726608
 21
1.132634854876795
 31
0.0
  0
LINE
  5
AA
330
1F
100
AcDbEntity
  8
0
  6
CONTINUOUS
 62
     3
100
AcDbLine
 10
-15.57631748726608
 20
-1.4673651451232
 30
0.0
 11
-15.27631748726608
 21
-1.4673651451232
 31
0.0
  0
LINE
  5
AB
330
1F
100
AcDbEntity
  8
0
  6
CONTINUOUS
 62
     3
100
AcDbLine
 10
48.2736244639198
 20
-0.5352007861237276
 30
0.0
 11
48.82529138856724
 21
-0.7785832530010346
 31
0.0
  0
ARC
  5
AC
330
1F
100
AcDbEntity
  8
0
  6
CONTINUOUS
 62
     3
100
AcDbCircle
 10
48.90601942991613
 20
-0.5955996927012741
 30
0.0
 40
0.2
100
AcDbArc
 50
246.194056471016
 51
355.2761812334437
  0
ARC
  5
AD
330
1F
100
AcDbEntity
  8
0
  6
CONTINUOUS
 62
     3
100
AcDbCircle
 10
48.48943742766502
 20
-0.7397118241620326
 30
0.0
 40
0.1
100
AcDbArc
 50
66.19405647101686
 51
173.1518197303275
  0
ARC
  5
AE
330
1F
100
AcDbEntity
  8
0
  6
CONTINUOUS
 62
     3
100
AcDbCircle
 10
43.72368259261943
 20
-0.1673650304786385
 30
0.0
 40
4.7
100
AcDbArc
 50
319.236293130319
 51
353.1518197303273
  0
LINE
  5
AF
330
1F
100
AcDbEntity
  8
0
  6
CONTINUOUS
 62
     3
100
AcDbLine
 10
47.06270384186721
 20
-3.279954189817364
 30
0.0
 11
47.61437076609861
 21
-3.523336656511123
 31
0.0
  0
ARC
  5
B0
330
1F
100
AcDbEntity
  8
0
  6
CONTINUOUS
 62
     3
100
AcDbCircle
 10
47.53364272474975
 20
-3.70632021681087
 30
0.0
 40
0.2
100
AcDbArc
 50
317.1119316262382
 51
426.1940564710163
  0
ARC
  5
B1
330
1F
100
AcDbEntity
  8
0
  6
CONTINUOUS
 62
     3
100
AcDbCircle
 10
47.35924484696131
 20
-3.301481667555922
 30
0.0
 40
0.1
100
AcDbArc
 50
139.2362931303197
 51
246.1940564710155
  0
ARC
  5
B2
330
1F
100
AcDbEntity
  8
0
  6
CONTINUOUS
 62
     3
100
AcDbCircle
 10
47.10306786254166
 20
-3.188462409667483
 30
0.0
 40
0.1
100
AcDbArc
 50
139.2362931303197
 51
246.1940564710155
  0
ARC
  5
B3
330
1F
100
AcDbEntity
  8
0
  6
CONTINUOUS
 62
     3
100
AcDbCircle
 10
48.23326044324536
 20
-0.6266925662736078
 30
0.0
 40
0.1
100
AcDbArc
 50
66.19405647101686
 51
173.1518197303275
  0
ARC
  5
B4
330
1F
100
AcDbEntity
  8
0
  6
CONTINUOUS
 62
     3
100
AcDbCircle
 10
43.46750560819977
 20
-0.0543457725902137
 30
0.0
 40
4.7
100
AcDbArc
 50
319.236293130319
 51
353.1518197303273
  0
ARC
  5
B5
330
1F
100
AcDbEntity
  8
0
  6
CONTINUOUS
 62
     3
100
AcDbCircle
 10
43.72368257668385
 20
-0.167365018265091
 30
0.0
 40
5.1
100
AcDbArc
 50
319.089421200302
 51
353.2986915535896
  0
LINE
  5
B6
330
1F
100
AcDbEntity
  8
0
  6
CONTINUOUS
 62
     3
100
AcDbLine
 10
39.17374084445514
 20
0.2004706893656554
 30
0.0
 11
38.62207391980769
 21
0.4438531562429624
 31
0.0
  0
ARC
  5
B7
330
1F
100
AcDbEntity
  8
0
  6
CONTINUOUS
 62
     3
100
AcDbCircle
 10
38.54134587845881
 20
0.2608695959432019
 30
0.0
 40
0.2
100
AcDbArc
 50
66.19405647101598
 51
175.2761812334437
  0
ARC
  5
B8
330
1F
100
AcDbEntity
  8
0
  6
CONTINUOUS
 62
     3
100
AcDbCircle
 10
38.95792788070992
 20
0.4049817274039747
 30
0.0
 40
0.1
100
AcDbArc
 50
246.1940564710169
 51
353.1518197303275
  0
ARC
  5
B9
330
1F
100
AcDbEntity
  8
0
  6
CONTINUOUS
 62
     3
100
AcDbCircle
 10
43.7236827157555
 20
-0.1673650662794337
 30
0.0
 40
4.7
100
AcDbArc
 50
139.236293130319
 51
173.1518197303273
  0
LINE
  5
BA
330
1F
100
AcDbEntity
  8
0
  6
CONTINUOUS
 62
     3
100
AcDbLine
 10
40.38466146650772
 20
2.945224093059291
 30
0.0
 11
39.8329945422763
 21
3.188606559753051
 31
0.0
  0
ARC
  5
BB
330
1F
100
AcDbEntity
  8
0
  6
CONTINUOUS
 62
     3
100
AcDbCircle
 10
39.91372258362518
 20
3.371590120052797
 30
0.0
 40
0.2
100
AcDbArc
 50
137.1119316262382
 51
246.1940564710162
  0
ARC
  5
BC
330
1F
100
AcDbEntity
  8
0
  6
CONTINUOUS
 62
     3
100
AcDbCircle
 10
40.08812046141362
 20
2.966751570797836
 30
0.0
 40
0.1
100
AcDbArc
 50
319.2362931303197
 51
426.1940564710155
  0
ARC
  5
BD
330
1F
100
AcDbEntity
  8
0
  6
CONTINUOUS
 62
     3
100
AcDbCircle
 10
40.34429744583328
 20
2.853732312909411
 30
0.0
 40
0.1
100
AcDbArc
 50
319.2362931303197
 51
426.1940564710155
  0
ARC
  5
BE
330
1F
100
AcDbEntity
  8
0
  6
CONTINUOUS
 62
     3
100
AcDbCircle
 10
39.21410486512957
 20
0.2919624695155498
 30
0.0
 40
0.1
100
AcDbArc
 50
246.1940564710169
 51
353.1518197303275
  0
ARC
  5
BF
330
1F
100
AcDbEntity
  8
0
  6
CONTINUOUS
 62
     3
100
AcDbCircle
 10
43.97985970017516
 20
-0.2803843241678585
 30
0.0
 40
4.7
100
AcDbArc
 50
139.236293130319
 51
173.1518197303273
  0
ARC
  5
C0
330
1F
100
AcDbEntity
  8
0
  6
CONTINUOUS
 62
     3
100
AcDbCircle
 10
43.72368273169109
 20
-0.167365078492967
 30
0.0
 40
5.1
100
AcDbArc
 50
139.089421200302
 51
173.2986915535896
  0
LINE
  5
C1
330
1F
100
AcDbEntity
  8
0
  6
CONTINUOUS
 62
     3
100
AcDbLine
 10
29.67286654173697
 20
3.432634854876777
 30
0.0
 11
34.17286654173697
 21
3.432634854876777
 31
0.0
  0
LINE
  5
C2
330
1F
100
AcDbEntity
  8
0
  6
CONTINUOUS
 62
     3
100
AcDbLine
 10
29.67286654173698
 20
3.032634854876786
 30
0.0
 11
34.17286654173697
 21
3.032634854876786
 31
0.0
  0
LINE
  5
C3
330
1F
100
AcDbEntity
  8
0
  6
CONTINUOUS
 62
     3
100
AcDbLine
 10
29.672866541737
 20
-3.367365145123222
 30
0.0
 11
34.17286654173699
 21
-3.367365145123222
 31
0.0
  0
LINE
  5
C4
330
1F
100
AcDbEntity
  8
0
  6
CONTINUOUS
 62
     3
100
AcDbLine
 10
29.67286654173701
 20
-3.767365145123214
 30
0.0
 11
34.17286654173699
 21
-3.767365145123214
 31
0.0
  0
LINE
  5
C5
330
1F
100
AcDbEntity
  8
LAYER0112
  6
CONTINUOUS
 62
     3
100
AcDbLine
 10
10.97368251273392
 20
5.232634854876796
 30
0.0
 11
11.02368251273391
 21
5.182634854876799
 31
0.0
  0
LINE
  5
C6
330
1F
100
AcDbEntity
  8
LAYER0112
  6
CONTINUOUS
 62
     3
100
AcDbLine
 10
11.02368251273391
 20
5.232634854876796
 30
0.0
 11
11.52368251273391
 21
5.232634854876796
 31
0.0
  0
LINE
  5
C7
330
1F
100
AcDbEntity
  8
LAYER0112
  6
CONTINUOUS
 62
     3
100
AcDbLine
 10
9.523682512733906
 20
5.232634854876789
 30
0.0
 11
10.97368251273392
 21
5.232634854876796
 31
0.0
  0
LINE
  5
C8
330
1F
100
AcDbEntity
  8
LAYER0112
  6
CONTINUOUS
 62
     3
100
AcDbLine
 10
9.523682512733906
 20
5.232634854876789
 30
0.0
 11
8.484452028192585
 21
5.832634854876783
 31
0.0
  0
LINE
  5
C9
330
1F
100
AcDbEntity
  8
LAYER0112
  6
CONTINUOUS
 62
     3
100
AcDbLine
 10
10.97368251273392
 20
-5.567365145123208
 30
0.0
 11
11.02368251273393
 21
-5.517365145123211
 31
0.0
  0
LINE
  5
CA
330
1F
100
AcDbEntity
  8
LAYER0112
  6
CONTINUOUS
 62
     3
100
AcDbLine
 10
11.02368251273393
 20
-5.567365145123208
 30
0.0
 11
11.52368251273393
 21
-5.567365145123208
 31
0.0
  0
LINE
  5
CB
330
1F
100
AcDbEntity
  8
LAYER0112
  6
CONTINUOUS
 62
     3
100
AcDbLine
 10
9.523682512733934
 20
-5.567365145123208
 30
0.0
 11
10.97368251273392
 21
-5.567365145123208
 31
0.0
  0
LINE
  5
CC
330
1F
100
AcDbEntity
  8
LAYER0112
  6
CONTINUOUS
 62
     3
100
AcDbLine
 10
9.523682512733934
 20
-5.567365145123208
 30
0.0
 11
8.484452028192585
 21
-6.167365145123203
 31
0.0
  0
LINE
  5
CD
330
1F
100
AcDbEntity
  8
LAYER0001
  6
CONTINUOUS
 62
     3
100
AcDbLine
 10
11.6236825127339
 20
5.132634854876802
 30
0.0
 11
11.52368251273391
 21
5.232634854876796
 31
0.0
  0
LINE
  5
CE
330
1F
100
AcDbEntity
  8
LAYER0001
  6
CONTINUOUS
 62
     3
100
AcDbLine
 10
11.62368251273393
 20
-5.467365145123214
 30
0.0
 11
11.52368251273393
 21
-5.567365145123208
 31
0.0
  0
LINE
  5
CF
330
1F
100
AcDbEntity
  8
LAYER0001
  6
CONTINUOUS
 62
     3
100
AcDbLine
 10
11.62368251273393
 20
3.632634854876795
 30
0.0
 11
21.63471733367047
 21
3.632634854876788
 31
0.0
  0
LINE
  5
D0
330
1F
100
AcDbEntity
  8
LAYER0001
  6
CONTINUOUS
 62
     3
100
AcDbLine
 10
11.62368251273393
 20
2.832634854876797
 30
0.0
 11
21.78386987604335
 21
2.832634854876805
 31
0.0
  0
LINE
  5
D1
330
1F
100
AcDbEntity
  8
LAYER0001
  6
CONTINUOUS
 62
     3
100
AcDbLine
 10
11.62368251273392
 20
-3.167365145123203
 30
0.0
 11
21.63471733367046
 21
-3.167365145123167
 31
0.0
  0
LINE
  5
D2
330
1F
100
AcDbEntity
  8
LAYER0001
  6
CONTINUOUS
 62
     3
100
AcDbLine
 10
11.62368251273392
 20
-3.9673651451232
 30
0.0
 11
21.78386987604335
 21
-3.967365145123207
 31
0.0
  0
LINE
  5
D3
330
1F
100
AcDbEntity
  8
LAYER0001
  6
CONTINUOUS
 62
     3
100
AcDbLine
 10
29.67286654173698
 20
2.832634854876788
 30
0.0
 11
22.44960414177761
 21
2.832634854876805
 31
0.0
  0
LINE
  5
D4
330
1F
100
AcDbEntity
  8
LAYER0001
  6
CONTINUOUS
 62
     3
100
AcDbLine
 10
29.67286654173702
 20
3.6326348548768
 30
0.0
 11
22.30045159940473
 21
3.632634854876788
 31
0.0
  0
LINE
  5
D5
330
1F
100
AcDbEntity
  8
LAYER0001
  6
CONTINUOUS
 62
     3
100
AcDbLine
 10
29.67286654173697
 20
-3.967365145123198
 30
0.0
 11
22.44960414177761
 21
-3.967365145123186
 31
0.0
  0
LINE
  5
D6
330
1F
100
AcDbEntity
  8
LAYER0001
  6
CONTINUOUS
 62
     3
100
AcDbLine
 10
29.67286654173703
 20
-3.167365145123205
 30
0.0
 11
22.30045159940473
 21
-3.167365145123217
 31
0.0
  0
LINE
  5
D7
330
1F
100
AcDbEntity
  8
LAYER0001
  6
CONTINUOUS
 62
     3
100
AcDbLine
 10
29.672866541737
 20
3.632634854876795
 30
0.0
 11
29.67286654173699
 21
2.832634854876797
 31
0.0
  0
LINE
  5
D8
330
1F
100
AcDbEntity
  8
LAYER0001
  6
CONTINUOUS
 62
     3
100
AcDbLine
 10
29.67286654173699
 20
-3.16736514512321
 30
0.0
 11
29.67286654173699
 21
-3.967365145123207
 31
0.0
  0
TEXT
  5
DA
330
1F
100
AcDbEntity
  8
0
 62
     7
100
AcDbText
 10
-47.99448623454006
 20
-2.567365145123251
 30
0.0
 40
2.0
  1
8.5
 50
90.0
 41
0.7999999999999995
  7
FDASTYLE0
 72
     5
 11
-47.99448623454006
 21
2.232634854876746
 31
0.0
100
AcDbText
  0
TEXT
  5
DB
330
1F
100
AcDbEntity
  8
0
 62
     7
100
AcDbText
 10
-12.76841071679975
 20
11.32441061083566
 30
0.0
 40
2.0
  1
0.5
 50
-0.0000000000000509
 41
0.7999999999999998
  7
FDASTYLE0
 72
     5
 11
-7.968410716799751
 21
11.32441061083566
 31
0.0
100
AcDbText
  0
TEXT
  5
DC
330
1F
100
AcDbEntity
  8
0
 62
     7
100
AcDbText
 10
-23.17631748726607
 20
6.531524854876768
 30
0.0
 40
2.0
  1
φ4
 50
90.0
 41
0.7272727272727271
  7
FDASTYLE0
 72
     5
 11
-23.17631748726607
 21
9.731524854876767
 31
0.0
100
AcDbText
  0
TEXT
  5
DD
330
1F
100
AcDbEntity
  8
0
 62
     7
100
AcDbText
 10
-24.24881748726607
 20
9.921524854876768
 30
0.0
 40
1.4
  1
±0.005
 50
90.0
 41
0.7741935483870966
  7
FDASTYLE0
 72
     5
 11
-24.24881748726607
 21
16.64152485487677
 31
0.0
100
AcDbText
  0
TEXT
  5
DE
330
1F
100
AcDbEntity
  8
0
 62
     7
100
AcDbText
 10
-27.17631748726607
 20
-3.817365145123222
 30
0.0
 40
2.0
  1
φ12
 50
90.0
 41
0.7499999999999996
  7
FDASTYLE0
 72
     5
 11
-27.17631748726607
 21
0.9826348548767747
 31
0.0
100
AcDbText
  0
TEXT
  5
DF
330
1F
100
AcDbEntity
  8
0
 62
     7
100
AcDbText
 10
-28.24881748726606
 20
1.312634854876773
 30
0.0
 40
1.4
  1
±0.2
 50
90.0
 41
0.7619047619047621
  7
FDASTYLE0
 72
     5
 11
-28.24881748726606
 21
5.792634854876773
 31
0.0
100
AcDbText
  0
TEXT
  5
E0
330
1F
100
AcDbEntity
  8
0
 62
     7
100
AcDbText
 10
19.49827452723546
 20
16.33263485487677
 30
0.0
 40
2.0
  1
140
 41
0.7999999999999995
  7
FDASTYLE0
 72
     5
 11
24.29827452723546
 21
16.33263485487677
 31
0.0
100
AcDbText
  0
TEXT
  5
E1
330
1F
100
AcDbEntity
  8
0
 62
     7
100
AcDbText
 10
24.37827452723546
 20
17.40513485487677
 30
0.0
 40
1.4
  1
±10
 41
0.75
  7
FDASTYLE0
 72
     5
 11
27.73827452723546
 21
17.40513485487677
 31
0.0
100
AcDbText
  0
TEXT
  5
E2
330
1F
100
AcDbEntity
  8
0
 62
     7
100
AcDbText
 10
36.12175654173699
 20
11.33263485487677
 30
0.0
 40
2.0
  1
10
 41
0.8000000000000007
  7
FDASTYLE0
 72
     5
 11
39.32175654173699
 21
11.33263485487677
 31
0.0
100
AcDbText
  0
TEXT
  5
E3
330
1F
100
AcDbEntity
  8
0
 62
     7
100
AcDbText
 10
39.26175654173699
 20
12.40513485487677
 30
0.0
 40
1.4
  1
±2
 41
0.7272727272727279
  7
FDASTYLE0
 72
     5
 11
41.501756541737
 21
12.40513485487677
 31
0.0
100
AcDbText
  0
TEXT
  5
E4
330
1F
100
AcDbEntity
  8
0
 62
     7
100
AcDbText
 10
-18.37407550378816
 20
16.56487315556764
 30
0.0
 40
2.0
  1
2.6
 41
0.8000000000000002
  7
FDASTYLE0
 72
     5
 11
-13.57407550378816
 21
16.56487315556764
 31
0.0
100
AcDbText
  0
TEXT
  5
E5
330
1F
100
AcDbEntity
  8
0
 62
     7
100
AcDbText
 10
-35.46809880656763
 20
-10.66205520488804
 30
0.0
 40
2.0
  1
2-Ｍ1.4（Ｐ＝0.3）
 41
0.7428571428571429
  7
FDASTYLE0
 72
     5
 11
-14.66809880656763
 21
-10.66205520488804
 31
0.0
100
AcDbText
  0
TEXT
  5
E6
330
1F
100
AcDbEntity
  8
0
 62
     7
100
AcDbText
 10
-35.46809880656763
 20
-13.66205520488804
 30
0.0
 40
2.0
  1
ＤＥＰＴＨ　1.3ＭＡＸ
 41
0.6956521739130437
  7
FDASTYLE0
 72
     5
 11
-16.26809880656763
 21
-13.66205520488804
 31
0.0
100
AcDbText
  0
TEXT
  5
E7
330
1F
100
AcDbEntity
  8
0
 62
     7
100
AcDbText
 10
15.25146235850842
 20
11.33263485487677
 30
0.0
 40
2.0
  1
（+）ＲＥＤ
 41
0.6857142857142858
  7
FDASTYLE0
 72
     5
 11
24.85146235850842
 21
11.33263485487677
 31
0.0
100
AcDbText
  0
TEXT
  5
E8
330
1F
100
AcDbEntity
  8
0
 62
     7
100
AcDbText
 10
15.25146235850844
 20
-10.66736514512317
 30
0.0
 40
2.0
  1
（-）ＢＬＡＣＫ
 50
0.000000000000116
 41
0.6808510638297871
  7
FDASTYLE0
 72
     5
 11
28.05146235850844
 21
-10.66736514512314
 31
0.0
100
AcDbText
  0
TEXT
  5
E9
330
1F
100
AcDbEntity
  8
0
 62
     7
100
AcDbText
 10
-4.666317487266086
 20
16.35394405926674
 30
0.0
 40
2.0
  1
26.3
 41
0.8
  7
FDASTYLE0
 72
     5
 11
1.733682512733914
 21
16.35394405926674
 31
0.0
100
AcDbText
  0
TEXT
  5
EA
330
1F
100
AcDbEntity
  8
0
 62
     7
100
AcDbText
 10
-40.99384028845341
 20
-20.43795132775739
 30
0.0
 40
2.0
  1
※ケーブル位置は参考です　THE CABLE LOCATION IS FOR REFERENCE ONLY.
 41
0.7632508833922261
  7
FDASTYLE0
 72
     5
 11
45.40615971154659
 21
-20.43795132775739
 31
0.0
100
AcDbText
  0
LINE
  5
EB
330
1F
100
AcDbEntity
  8
0
  6
CONTINUOUS
 62
     9
100
AcDbLine
 10
11.62368251273393
 20
5.632634854876795
 30
0.0
 11
11.62368251273393
 21
16.33263485487677
 31
0.0
  0
LINE
  5
EC
330
1F
100
AcDbEntity
  8
0
  6
CONTINUOUS
 62
     9
100
AcDbLine
 10
-15.17631748726609
 20
2.232634854876769
 30
0.0
 11
-15.17631748726609
 21
11.33263485487677
 31
0.0
  0
LINE
  5
ED
330
1F
100
AcDbEntity
  8
0
  6
CONTINUOUS
 62
     9
100
AcDbLine
 10
-15.17631748726609
 20
10.83263485487677
 30
0.0
 11
-14.67631748726607
 21
10.83263485487677
 31
0.0
  0
LINE
  5
EE
330
1F
100
AcDbEntity
  8
0
  6
CONTINUOUS
 62
     9
100
AcDbLine
 10
-14.67631748726607
 20
5.132634854876773
 30
0.0
 11
-14.67631748726607
 21
16.33263485487677
 31
0.0
  0
LINE
  5
EF
330
1F
100
AcDbEntity
  8
0
  6
CONTINUOUS
 62
     9
100
AcDbLine
 10
11.6236825127339
 20
5.632634854876802
 30
0.0
 11
11.6236825127339
 21
15.72525326365671
 31
0.0
  0
LINE
  5
F0
330
1F
100
AcDbEntity
  8
0
  6
CONTINUOUS
 62
     9
100
AcDbLine
 10
-15.57631748726609
 20
-2.16736514512321
 30
0.0
 11
-23.17631748726607
 21
-2.16736514512321
 31
0.0
  0
LINE
  5
F1
330
1F
100
AcDbEntity
  8
0
  6
CONTINUOUS
 62
     9
100
AcDbLine
 10
-15.57631748726609
 20
1.832634854876762
 30
0.0
 11
-23.17631748726607
 21
1.832634854876762
 31
0.0
  0
LINE
  5
F2
330
1F
100
AcDbEntity
  8
0
  6
CONTINUOUS
 62
     9
100
AcDbLine
 10
-22.67631748726607
 20
-2.16736514512321
 30
0.0
 11
-22.67631748726607
 21
1.832634854876762
 31
0.0
  0
LINE
  5
F3
330
1F
100
AcDbEntity
  8
0
  6
CONTINUOUS
 62
     9
100
AcDbLine
 10
-13.97631748726607
 20
5.832634854876769
 30
0.0
 11
-27.17631748726607
 21
5.832634854876769
 31
0.0
  0
LINE
  5
F4
330
1F
100
AcDbEntity
  8
0
  6
CONTINUOUS
 62
     9
100
AcDbLine
 10
-13.97631748726607
 20
-6.167365145123217
 30
0.0
 11
-27.17631748726607
 21
-6.167365145123217
 31
0.0
  0
LINE
  5
F5
330
1F
100
AcDbEntity
  8
0
  6
CONTINUOUS
 62
     9
100
AcDbLine
 10
34.17286654173699
 20
4.132634854876795
 30
0.0
 11
34.17286654173699
 21
16.33263485487677
 31
0.0
  0
LINE
  5
F6
330
1F
100
AcDbEntity
  8
0
  6
CONTINUOUS
 62
     9
100
AcDbLine
 10
29.672866541737
 20
10.83263485487677
 30
0.0
 11
34.17286654173699
 21
10.83263485487677
 31
0.0
  0
LINE
  5
F7
330
1F
100
AcDbEntity
  8
0
  6
CONTINUOUS
 62
     9
100
AcDbLine
 10
29.672866541737
 20
4.132634854876795
 30
0.0
 11
29.672866541737
 21
11.33263485487677
 31
0.0
  0
LINE
  5
F8
330
1F
100
AcDbEntity
  8
0
  6
CONTINUOUS
 62
     9
100
AcDbLine
 10
34.17286654173699
 20
3.932634854876792
 30
0.0
 11
34.17286654173699
 21
11.33263485487677
 31
0.0
  0
LINE
  5
F9
330
1F
100
AcDbEntity
  8
0
  6
CONTINUOUS
 62
     9
100
AcDbLine
 10
-17.27631748726608
 20
15.83263485487677
 30
0.0
 11
-14.67631748726607
 21
15.83263485487677
 31
0.0
  0
LINE
  5
FA
330
1F
100
AcDbEntity
  8
0
  6
CONTINUOUS
 62
     9
100
AcDbLine
 10
-17.27631748726608
 20
1.510134854876792
 30
0.0
 11
-17.27631748726608
 21
16.33263485487677
 31
0.0
  0
LINE
  5
FB
330
1F
100
AcDbEntity
  8
0
  6
CONTINUOUS
 62
     9
100
AcDbLine
 10
15.63257251273392
 20
10.83263485487677
 30
0.0
 11
24.81407781485875
 21
10.83263485487677
 31
0.0
  0
LINE
  5
FC
330
1F
100
AcDbEntity
  8
0
  6
CONTINUOUS
 62
     9
100
AcDbLine
 10
15.63257251273394
 20
-11.16736514512317
 30
0.0
 11
28.26318408875559
 21
-11.16736514512314
 31
0.0
  0
LINE
  5
FD
330
1F
100
AcDbEntity
  8
0
  6
CONTINUOUS
 62
     9
100
AcDbLine
 10
-7.694419657231194
 20
10.83263485487677
 30
0.0
 11
-14.67631748726607
 21
10.83263485487677
 31
0.0
  0
INSERT
  5
FE
330
1F
100
AcDbEntity
  8
0
 62
     9
100
AcDbBlockReference
  2
_OPEN30
 10
-14.67631748726607
 20
10.83263485487677
 30
0.0
 41
1.500001393912182
 42
1.499994636989232
 50
180.0
  0
LINE
  5
FF
330
1F
100
AcDbEntity
  8
0
  6
CONTINUOUS
 62
     9
100
AcDbLine
 10
-18.99763811999931
 20
10.83263485487677
 30
0.0
 11
-15.17631748726609
 21
10.83263485487677
 31
0.0
  0
INSERT
  5
100
330
1F
100
AcDbEntity
  8
0
 62
     9
100
AcDbBlockReference
  2
_OPEN30
 10
-15.17631748726609
 20
10.83263485487677
 30
0.0
 41
1.500001393912182
 42
1.499994636989232
 50
360.0
  0
LINE
  5
101
330
1F
100
AcDbEntity
  8
0
  6
CONTINUOUS
 62
     9
100
AcDbLine
 10
-22.67631748726607
 20
16.6779734689935
 30
0.0
 11
-22.67631748726607
 21
1.832634854876762
 31
0.0
  0
INSERT
  5
102
330
1F
100
AcDbEntity
  8
0
 62
     9
100
AcDbBlockReference
  2
_OPEN30
 10
-22.67631748726607
 20
1.832634854876762
 30
0.0
 41
1.500001393912182
 42
1.499994636989232
 50
270.0
  0
LINE
  5
103
330
1F
100
AcDbEntity
  8
0
  6
CONTINUOUS
 62
     9
100
AcDbLine
 10
-22.67631748726607
 20
-4.66736514512321
 30
0.0
 11
-22.67631748726607
 21
-2.16736514512321
 31
0.0
  0
INSERT
  5
104
330
1F
100
AcDbEntity
  8
0
 62
     9
100
AcDbBlockReference
  2
_OPEN30
 10
-22.67631748726607
 20
-2.16736514512321
 30
0.0
 41
1.500001393912182
 42
1.499994636989232
 50
90.0
  0
LINE
  5
105
330
1F
100
AcDbEntity
  8
0
  6
CONTINUOUS
 62
     9
100
AcDbLine
 10
40.55873092855948
 20
10.83263485487677
 30
0.0
 11
34.17286654173699
 21
10.83263485487677
 31
0.0
  0
INSERT
  5
106
330
1F
100
AcDbEntity
  8
0
 62
     9
100
AcDbBlockReference
  2
_OPEN30
 10
34.17286654173699
 20
10.83263485487677
 30
0.0
 41
1.500001393912182
 42
1.499994636989232
 50
180.0
  0
LINE
  5
107
330
1F
100
AcDbEntity
  8
0
  6
CONTINUOUS
 62
     9
100
AcDbLine
 10
27.07362930211088
 20
10.83263485487677
 30
0.0
 11
29.672866541737
 21
10.83263485487677
 31
0.0
  0
INSERT
  5
108
330
1F
100
AcDbEntity
  8
0
 62
     9
100
AcDbBlockReference
  2
_OPEN30
 10
29.672866541737
 20
10.83263485487677
 30
0.0
 41
1.500001393912182
 42
1.499994636989232
 50
360.0
  0
LINE
  5
109
330
1F
100
AcDbEntity
  8
0
  6
CONTINUOUS
 62
     9
100
AcDbLine
 10
-20.20743447742933
 20
15.83263485487677
 30
0.0
 11
-17.27631748726608
 21
15.83263485487677
 31
0.0
  0
INSERT
  5
10A
330
1F
100
AcDbEntity
  8
0
 62
     9
100
AcDbBlockReference
  2
_OPEN30
 10
-17.27631748726608
 20
15.83263485487677
 30
0.0
 41
1.500001393912182
 42
1.499994636989232
 50
360.0
  0
LINE
  5
10B
330
1F
100
AcDbEntity
  8
0
  6
CONTINUOUS
 62
     9
100
AcDbLine
 10
-14.67631748726607
 20
15.83263485487677
 30
0.0
 11
11.6236825127339
 21
15.83263485487677
 31
0.0
  0
INSERT
  5
10C
330
1F
100
AcDbEntity
  8
0
 62
     9
100
AcDbBlockReference
  2
_OPEN30
 10
-14.67631748726607
 20
15.83263485487677
 30
0.0
 41
1.500001393912182
 42
1.499994636989232
 50
180.0
  0
INSERT
  5
10D
330
1F
100
AcDbEntity
  8
0
 62
     9
100
AcDbBlockReference
  2
_OPEN30
 10
11.6236825127339
 20
15.83263485487677
 30
0.0
 41
1.500001393912182
 42
1.499994636989232
 50
360.0
  0
LINE
  5
10E
330
1F
100
AcDbEntity
  8
0
  6
CONTINUOUS
 62
     9
100
AcDbLine
 10
-26.67631748726607
 20
-6.167365145123217
 30
0.0
 11
-26.67631748726607
 21
5.832634854876769
 31
0.0
  0
INSERT
  5
10F
330
1F
100
AcDbEntity
  8
0
 62
     9
100
AcDbBlockReference
  2
_OPEN30
 10
-26.67631748726607
 20
-6.167365145123217
 30
0.0
 41
1.500001393912182
 42
1.499994636989232
 50
270.0
  0
INSERT
  5
110
330
1F
100
AcDbEntity
  8
0
 62
     9
100
AcDbBlockReference
  2
_OPEN30
 10
-26.67631748726607
 20
5.832634854876769
 30
0.0
 41
1.500001393912182
 42
1.499994636989232
 50
90.0
  0
LINE
  5
111
330
1F
100
AcDbEntity
  8
0
  6
CONTINUOUS
 62
     9
100
AcDbLine
 10
11.62368251273393
 20
15.83263485487677
 30
0.0
 11
34.17286654173699
 21
15.83263485487677
 31
0.0
  0
INSERT
  5
112
330
1F
100
AcDbEntity
  8
0
 62
     9
100
AcDbBlockReference
  2
_OPEN30
 10
11.62368251273393
 20
15.83263485487677
 30
0.0
 41
1.500001393912182
 42
1.499994636989232
 50
180.0
  0
INSERT
  5
113
330
1F
100
AcDbEntity
  8
0
 62
     9
100
AcDbBlockReference
  2
_OPEN30
 10
34.17286654173699
 20
15.83263485487677
 30
0.0
 41
1.500001393912182
 42
1.499994636989232
 50
360.0
  0
ARC
  5
114
330
1F
100
AcDbEntity
  8
0
  6
CONTINUOUS
 62
     3
100
AcDbCircle
 10
43.72368247693313
 20
-0.1673652682592639
 30
0.0
 40
4.25
100
AcDbArc
 50
315.0991286035406
 51
404.9008729154862
  0
ARC
  5
115
330
1F
100
AcDbEntity
  8
0
  6
CONTINUOUS
 62
     3
100
AcDbCircle
 10
43.72368247693313
 20
-0.1673652682592639
 30
0.0
 40
4.25
100
AcDbArc
 50
135.099127084514
 51
224.9008713964594
  0
LINE
  5
116
330
1F
100
AcDbEntity
  8
0
  6
CONTINUOUS
 62
     3
100
AcDbLine
 10
34.17286654173697
 20
3.432634854876777
 30
0.0
 11
34.17286654173697
 21
3.032634854876786
 31
0.0
  0
LINE
  5
117
330
1F
100
AcDbEntity
  8
0
  6
CONTINUOUS
 62
     3
100
AcDbLine
 10
34.17286654173699
 20
-3.367365145123222
 30
0.0
 11
34.17286654173699
 21
-3.767365145123214
 31
0.0
  0
VIEWPORT
  5
48
330
1B
100
AcDbEntity
 67
     1
  8
0
100
AcDbViewport
 10
0.3645981390969268
 20
-0.81640823644031
 30
0.0
 40
302.1545062418219
 41
117.7292585479025
 68
     1
 69
     1
1001
ACAD
1000
MVIEW
1002
{
1070
    16
1010
0.0
1020
0.0
1030
0.0
1010
0.0
1020
0.0
1030
1.0
1040
0.0
1040
117.7292585479025
1040
0.3645981390969268
1040
-0.81640823644031
1040
50.0
1040
0.0
1040
0.0
1070
     0
1070
   100
1070
     0
1070
     1
1070
     0
1070
     0
1070
     0
1070
     0
1040
0.0
1040
0.0
1040
0.0
1040
0.5
1040
0.5
1040
0.0
1040
0.0
1070
     0
1002
{
1002
}
1002
}
  0
ENDSEC
  0
SECTION
  2
OBJECTS
  0
DICTIONARY
  5
C
330
0
100
AcDbDictionary
  3
ACAD_GROUP
350
D
  3
ACAD_LAYOUT
350
1A
  3
ACAD_MLINESTYLE
350
17
  3
ACAD_PLOTSETTINGS
350
19
  3
ACDBHEADERROUNDTRIPXREC
350
118
  0
DICTIONARY
  5
D
102
{ACAD_REACTORS
330
C
102
}
330
C
100
AcDbDictionary
  0
DICTIONARY
  5
1A
102
{ACAD_REACTORS
330
C
102
}
330
C
100
AcDbDictionary
  0
DICTIONARY
  5
17
102
{ACAD_REACTORS
330
C
102
}
330
C
100
AcDbDictionary
  3
STANDARD
350
18
  0
DICTIONARY
  5
19
102
{ACAD_REACTORS
330
C
102
}
330
C
100
AcDbDictionary
  0
DICTIONARY
  5
118
102
{ACAD_REACTORS
330
C
102
}
330
C
100
AcDbDictionary
  3
CEPSNTYPE
350
121
  3
DIMSTYLEDATA
350
137
  3
FINGERPRINTGUID
350
122
  3
HYPERLINKBASE
350
11B
  3
INSUNITS
350
120
  3
LAYOUTDICT
350
11D
  3
LWETCUNION
350
11F
  3
PLOTSETDICT
350
11E
  3
PSVPSCALE
350
124
  3
PUCSBASE
350
127
  3
PUCSORGBACK
350
12D
  3
PUCSORGBOTTOM
350
129
  3
PUCSORGFRONT
350
12C
  3
PUCSORGLEFT
350
12A
  3
PUCSORGRIGHT
350
12B
  3
PUCSORGTOP
350
128
  3
PUCSORTHOREF
350
125
  3
PUCSORTHOVIEW
350
126
  3
STYLESHEET
350
11C
  3
TSTACKALIGN
350
119
  3
TSTACKSIZE
350
11A
  3
UCSBASE
350
130
  3
UCSORGBACK
350
136
  3
UCSORGBOTTOM
350
132
  3
UCSORGFRONT
350
135
  3
UCSORGLEFT
350
133
  3
UCSORGRIGHT
350
134
  3
UCSORGTOP
350
131
  3
UCSORTHOREF
350
12E
  3
UCSORTHOVIEW
350
12F
  3
VERSIONGUID
350
123
  0
MLINESTYLE
  5
18
102
{ACAD_REACTORS
330
17
102
}
330
17
100
AcDbMlineStyle
  2
Standard
 70
     0
  3

 62
   256
 51
90.0
 52
90.0
 71
     2
 49
0.5
 62
   256
  6
BYLAYER
 49
-0.5
 62
   256
  6
BYLAYER
  0
XRECORD
  5
121
102
{ACAD_REACTORS
330
118
102
}
330
118
100
AcDbXrecord
 90
        0
  0
XRECORD
  5
137
102
{ACAD_REACTORS
330
118
102
}
330
118
100
AcDbXrecord
1000
DSTYLE
1002
{
1070
   171
 70
     2
1070
   143
 40
25.4
1070
   274
 70
     2
1070
    41
 40
1.25
1070
   141
 40
0.09
1070
   271
 70
     4
1070
    43
 40
0.38
1070
    44
 40
0.18
1070
   278
 70
    46
1070
    42
 40
0.0625
1070
   147
 40
0.09
1070
    77
 70
     3
1070
   272
 70
     4
1070
    73
 70
     1
1070
   172
 70
     0
1070
    74
 70
     1
1070
   283
 70
     1
1070
   340
340
11
1070
   140
 40
0.18
1070
   284
 70
     0
1070
    78
 70
     0
1002
}
  0
XRECORD
  5
122
102
{ACAD_REACTORS
330
118
102
}
330
118
100
AcDbXrecord
  1
{C16C0CA7-7809-4064-B00D-40C5E748B312}
  0
XRECORD
  5
11B
102
{ACAD_REACTORS
330
118
102
}
330
118
100
AcDbXrecord
  1

  0
XRECORD
  5
120
102
{ACAD_REACTORS
330
118
102
}
330
118
100
AcDbXrecord
 90
        4
  0
XRECORD
  5
11D
102
{ACAD_REACTORS
330
118
102
}
330
118
100
AcDbXrecord
340
1A
  0
XRECORD
  5
11F
102
{ACAD_REACTORS
330
118
102
}
330
118
100
AcDbXrecord
 90
    10781
  0
XRECORD
  5
11E
102
{ACAD_REACTORS
330
118
102
}
330
118
100
AcDbXrecord
340
19
  0
XRECORD
  5
124
102
{ACAD_REACTORS
330
118
102
}
330
118
100
AcDbXrecord
 40
0.0
  0
XRECORD
  5
127
102
{ACAD_REACTORS
330
118
102
}
330
118
100
AcDbXrecord
340
0
  0
XRECORD
  5
12D
102
{ACAD_REACTORS
330
118
102
}
330
118
100
AcDbXrecord
 10
0.0
 20
0.0
 30
0.0
  0
XRECORD
  5
129
102
{ACAD_REACTORS
330
118
102
}
330
118
100
AcDbXrecord
 10
0.0
 20
0.0
 30
0.0
  0
XRECORD
  5
12C
102
{ACAD_REACTORS
330
118
102
}
330
118
100
AcDbXrecord
 10
0.0
 20
0.0
 30
0.0
  0
XRECORD
  5
12A
102
{ACAD_REACTORS
330
118
102
}
330
118
100
AcDbXrecord
 10
0.0
 20
0.0
 30
0.0
  0
XRECORD
  5
12B
102
{ACAD_REACTORS
330
118
102
}
330
118
100
AcDbXrecord
 10
0.0
 20
0.0
 30
0.0
  0
XRECORD
  5
128
102
{ACAD_REACTORS
330
118
102
}
330
118
100
AcDbXrecord
 10
0.0
 20
0.0
 30
0.0
  0
XRECORD
  5
125
102
{ACAD_REACTORS
330
118
102
}
330
118
100
AcDbXrecord
340
0
  0
XRECORD
  5
126
102
{ACAD_REACTORS
330
118
102
}
330
118
100
AcDbXrecord
 70
     0
  0
XRECORD
  5
11C
102
{ACAD_REACTORS
330
118
102
}
330
118
100
AcDbXrecord
  1

  0
XRECORD
  5
119
102
{ACAD_REACTORS
330
118
102
}
330
118
100
AcDbXrecord
 90
        1
  0
XRECORD
  5
11A
102
{ACAD_REACTORS
330
118
102
}
330
118
100
AcDbXrecord
 90
       70
  0
XRECORD
  5
130
102
{ACAD_REACTORS
330
118
102
}
330
118
100
AcDbXrecord
340
0
  0
XRECORD
  5
136
102
{ACAD_REACTORS
330
118
102
}
330
118
100
AcDbXrecord
 10
0.0
 20
0.0
 30
0.0
  0
XRECORD
  5
132
102
{ACAD_REACTORS
330
118
102
}
330
118
100
AcDbXrecord
 10
0.0
 20
0.0
 30
0.0
  0
XRECORD
  5
135
102
{ACAD_REACTORS
330
118
102
}
330
118
100
AcDbXrecord
 10
0.0
 20
0.0
 30
0.0
  0
XRECORD
  5
133
102
{ACAD_REACTORS
330
118
102
}
330
118
100
AcDbXrecord
 10
0.0
 20
0.0
 30
0.0
  0
XRECORD
  5
134
102
{ACAD_REACTORS
330
118
102
}
330
118
100
AcDbXrecord
 10
0.0
 20
0.0
 30
0.0
  0
XRECORD
  5
131
102
{ACAD_REACTORS
330
118
102
}
330
118
100
AcDbXrecord
 10
0.0
 20
0.0
 30
0.0
  0
XRECORD
  5
12E
102
{ACAD_REACTORS
330
118
102
}
330
118
100
AcDbXrecord
340
0
  0
XRECORD
  5
12F
102
{ACAD_REACTORS
330
118
102
}
330
118
100
AcDbXrecord
 70
     0
  0
XRECORD
  5
123
102
{ACAD_REACTORS
330
118
102
}
330
118
100
AcDbXrecord
  1
{FAEB1C32-E019-11D5-929B-00C0DF256EC4}
  0
ENDSEC
  0
EOF
