  0
SECTION
  2
HEADER
  9
$ACADVER
  1
AC1014
  9
$ACADMAINTVER
 70
     9
  9
$DWGCODEPAGE
  3
ANSI_932
  9
$INSBASE
 10
0.0
 20
0.0
 30
0.0
  9
$EXTMIN
 10
-162.4500014305115
 20
-51.0000002086162
 30
0.0
  9
$EXTMAX
 10
162.4500014305115
 20
51.0000004172324
 30
0.0
  9
$LIMMIN
 10
-74.25
 20
-52.5
  9
$LIMMAX
 10
74.25
 20
52.5
  9
$ORTHOMODE
 70
     0
  9
$REGENMODE
 70
     1
  9
$FILLMODE
 70
     1
  9
$QTEXTMODE
 70
     0
  9
$MIRRTEXT
 70
     1
  9
$DRAGMODE
 70
     2
  9
$LTSCALE
 40
0.5
  9
$OSMODE
 70
    37
  9
$ATTMODE
 70
     1
  9
$TEXTSIZE
 40
0.2
  9
$TRACEWID
 40
0.05
  9
$TEXTSTYLE
  7
STANDARD
  9
$CLAYER
  8
0
  9
$CELTYPE
  6
BYLAYER
  9
$CECOLOR
 62
   256
  9
$CELTSCALE
 40
1.0
  9
$DELOBJ
 70
     1
  9
$DISPSILH
 70
     0
  9
$DIMSCALE
 40
1.0
  9
$DIMASZ
 40
1.25
  9
$DIMEXO
 40
0.0625
  9
$DIMDLI
 40
0.38
  9
$DIMRND
 40
0.0
  9
$DIMDLE
 40
0.0
  9
$DIMEXE
 40
0.18
  9
$DIMTP
 40
0.0
  9
$DIMTM
 40
0.0
  9
$DIMTXT
 40
0.18
  9
$DIMCEN
 40
0.09
  9
$DIMTSZ
 40
0.0
  9
$DIMTOL
 70
     0
  9
$DIMLIM
 70
     0
  9
$DIMTIH
 70
     1
  9
$DIMTOH
 70
     1
  9
$DIMSE1
 70
     0
  9
$DIMSE2
 70
     0
  9
$DIMTAD
 70
     3
  9
$DIMZIN
 70
     0
  9
$DIMBLK
  1

  9
$DIMASO
 70
     1
  9
$DIMSHO
 70
     1
  9
$DIMPOST
  1

  9
$DIMAPOST
  1

  9
$DIMALT
 70
     0
  9
$DIMALTD
 70
     2
  9
$DIMALTF
 40
25.4
  9
$DIMLFAC
 40
1.0
  9
$DIMTOFL
 70
     0
  9
$DIMTVP
 40
0.0
  9
$DIMTIX
 70
     0
  9
$DIMSOXD
 70
     0
  9
$DIMSAH
 70
     0
  9
$DIMBLK1
  1

  9
$DIMBLK2
  1

  9
$DIMSTYLE
  2
STANDARD
  9
$DIMCLRD
 70
     0
  9
$DIMCLRE
 70
     0
  9
$DIMCLRT
 70
     0
  9
$DIMTFAC
 40
1.0
  9
$DIMGAP
 40
0.09
  9
$DIMJUST
 70
     0
  9
$DIMSD1
 70
     0
  9
$DIMSD2
 70
     0
  9
$DIMTOLJ
 70
     1
  9
$DIMTZIN
 70
     0
  9
$DIMALTZ
 70
     0
  9
$DIMALTTZ
 70
     0
  9
$DIMFIT
 70
     3
  9
$DIMUPT
 70
     0
  9
$DIMUNIT
 70
     2
  9
$DIMDEC
 70
     4
  9
$DIMTDEC
 70
     4
  9
$DIMALTU
 70
     2
  9
$DIMALTTD
 70
     2
  9
$DIMTXSTY
  7
STANDARD
  9
$DIMAUNIT
 70
     0
  9
$LUNITS
 70
     2
  9
$LUPREC
 70
     4
  9
$SKETCHINC
 40
0.1
  9
$FILLETRAD
 40
0.5
  9
$AUNITS
 70
     0
  9
$AUPREC
 70
     0
  9
$MENU
  1
.
  9
$ELEVATION
 40
0.0
  9
$PELEVATION
 40
0.0
  9
$THICKNESS
 40
0.0
  9
$LIMCHECK
 70
     0
  9
$CHAMFERA
 40
0.5
  9
$CHAMFERB
 40
0.5
  9
$CHAMFERC
 40
1.0
  9
$CHAMFERD
 40
0.0
  9
$SKPOLY
 70
     0
  9
$TDCREATE
 40
2457534.466758275
  9
$TDUPDATE
 40
2457534.466758287
  9
$TDINDWG
 40
0.0000000116
  9
$TDUSRTIMER
 40
0.0000000116
  9
$USRTIMER
 70
     1
  9
$ANGBASE
 50
0.0
  9
$ANGDIR
 70
     0
  9
$PDMODE
 70
     0
  9
$PDSIZE
 40
1.0
  9
$PLINEWID
 40
0.0
  9
$COORDS
 70
     1
  9
$SPLFRAME
 70
     0
  9
$SPLINETYPE
 70
     6
  9
$SPLINESEGS
 70
     8
  9
$ATTDIA
 70
     0
  9
$ATTREQ
 70
     1
  9
$HANDLING
 70
     1
  9
$HANDSEED
  5
132
  9
$SURFTAB1
 70
     6
  9
$SURFTAB2
 70
     6
  9
$SURFTYPE
 70
     6
  9
$SURFU
 70
     6
  9
$SURFV
 70
     6
  9
$UCSNAME
  2

  9
$UCSORG
 10
0.0
 20
0.0
 30
0.0
  9
$UCSXDIR
 10
1.0
 20
0.0
 30
0.0
  9
$UCSYDIR
 10
0.0
 20
1.0
 30
0.0
  9
$PUCSNAME
  2

  9
$PUCSORG
 10
0.0
 20
0.0
 30
0.0
  9
$PUCSXDIR
 10
1.0
 20
0.0
 30
0.0
  9
$PUCSYDIR
 10
0.0
 20
1.0
 30
0.0
  9
$USERI1
 70
     0
  9
$USERI2
 70
     0
  9
$USERI3
 70
     0
  9
$USERI4
 70
     0
  9
$USERI5
 70
     0
  9
$USERR1
 40
0.0
  9
$USERR2
 40
0.0
  9
$USERR3
 40
0.0
  9
$USERR4
 40
0.0
  9
$USERR5
 40
0.0
  9
$WORLDVIEW
 70
     1
  9
$SHADEDGE
 70
     3
  9
$SHADEDIF
 70
    70
  9
$TILEMODE
 70
     1
  9
$MAXACTVP
 70
    64
  9
$PINSBASE
 10
0.0
 20
0.0
 30
0.0
  9
$PLIMCHECK
 70
     0
  9
$PEXTMIN
 10
1.000000000000000E+20
 20
1.000000000000000E+20
 30
1.000000000000000E+20
  9
$PEXTMAX
 10
-1.000000000000000E+20
 20
-1.000000000000000E+20
 30
-1.000000000000000E+20
  9
$PLIMMIN
 10
0.0
 20
0.0
  9
$PLIMMAX
 10
12.0
 20
9.0
  9
$UNITMODE
 70
     0
  9
$VISRETAIN
 70
     0
  9
$PLINEGEN
 70
     1
  9
$PSLTSCALE
 70
     0
  9
$TREEDEPTH
 70
  3020
  9
$PICKSTYLE
 70
     1
  9
$CMLSTYLE
  2
STANDARD
  9
$CMLJUST
 70
     0
  9
$CMLSCALE
 40
1.0
  9
$PROXYGRAPHICS
 70
     0
  9
$MEASUREMENT
 70
     1
  0
ENDSEC
  0
SECTION
  2
CLASSES
  0
CLASS
  1
ACDBDICTIONARYWDFLT
  2
AcDbDictionaryWithDefault
  3
ObjectDBX Classes
 90
        0
280
     0
281
     0
  0
CLASS
  1
XRECORD
  2
AcDbXrecord
  3
AutoCAD 2000
 90
        0
280
     0
281
     0
  0
CLASS
  1
LWPOLYLINE
  2
AcDbPolyline
  3
AutoCAD 2000
 90
        0
280
     0
281
     1
  0
CLASS
  1
HATCH
  2
AcDbHatch
  3
AutoCAD 2000
 90
        0
280
     0
281
     1
  0
CLASS
  1
ACDBPLACEHOLDER
  2
AcDbPlaceHolder
  3
ObjectDBX Classes
 90
        0
280
     0
281
     0
  0
CLASS
  1
LAYOUT
  2
AcDbLayout
  3
ObjectDBX Classes
 90
        0
280
     0
281
     0
  0
ENDSEC
  0
SECTION
  2
TABLES
  0
TABLE
  2
VPORT
  5
8
330
0
100
AcDbSymbolTable
 70
     1
  0
VPORT
  5
29
330
8
100
AcDbSymbolTableRecord
100
AcDbViewportTableRecord
  2
*ACTIVE
 70
     0
 10
0.0
 20
0.0
 11
1.0
 21
1.0
 12
0.0
 22
0.0
 13
0.0
 23
0.0
 14
0.5
 24
0.5
 15
0.5
 25
0.5
 16
0.0
 26
0.0
 36
1.0
 17
-0.0000000000000036
 27
0.0000001043080999
 37
0.0
 40
34.68000021278853
 41
3.18529412615207
 42
50.0
 43
0.0
 44
0.0
 50
0.0
 51
0.0
 71
     0
 72
  1000
 73
     1
 74
     1
 75
     0
 76
     0
 77
     0
 78
     0
  0
ENDTAB
  0
TABLE
  2
LTYPE
  5
5
330
0
100
AcDbSymbolTable
 70
    28
  0
LTYPE
  5
14
330
5
100
AcDbSymbolTableRecord
100
AcDbLinetypeTableRecord
  2
BYBLOCK
 70
     0
  3

 72
    65
 73
     0
 40
0.0
  0
LTYPE
  5
15
330
5
100
AcDbSymbolTableRecord
100
AcDbLinetypeTableRecord
  2
BYLAYER
 70
     0
  3

 72
    65
 73
     0
 40
0.0
  0
LTYPE
  5
16
330
5
100
AcDbSymbolTableRecord
100
AcDbLinetypeTableRecord
  2
CONTINUOUS
 70
     0
  3
Solid line
 72
    65
 73
     0
 40
0.0
  0
LTYPE
  5
2B
330
5
100
AcDbSymbolTableRecord
100
AcDbLinetypeTableRecord
  2
HIDDENX2
 70
     0
  3
CADPAC LINETYPE
 72
    65
 73
     2
 40
4.987405541561714
 49
3.740554156171285
 74
     0
 49
-1.246851385390428
 74
     0
  0
LTYPE
  5
2C
330
5
100
AcDbSymbolTableRecord
100
AcDbLinetypeTableRecord
  2
HIDDEN
 70
     0
  3
CADPAC LINETYPE
 72
    65
 73
     2
 40
3.740554156171285
 49
2.493702770780857
 74
     0
 49
-1.246851385390428
 74
     0
  0
LTYPE
  5
2D
330
5
100
AcDbSymbolTableRecord
100
AcDbLinetypeTableRecord
  2
HIDDEN2
 70
     0
  3
CADPAC LINETYPE
 72
    65
 73
     2
 40
3.117128463476071
 49
1.870277078085643
 74
     0
 49
-1.246851385390428
 74
     0
  0
LTYPE
  5
2E
330
5
100
AcDbSymbolTableRecord
100
AcDbLinetypeTableRecord
  2
DASHED
 70
     0
  3
CADPAC LINETYPE
 72
    65
 73
     2
 40
3.4911838790932
 49
2.493702770780857
 74
     0
 49
-0.9974811083123427
 74
     0
  0
LTYPE
  5
2F
330
5
100
AcDbSymbolTableRecord
100
AcDbLinetypeTableRecord
  2
DASHED2
 70
     0
  3
CADPAC LINETYPE
 72
    65
 73
     2
 40
2.244332493702785
 49
1.496221662468514
 74
     0
 49
-0.7481108312342713
 74
     0
  0
LTYPE
  5
30
330
5
100
AcDbSymbolTableRecord
100
AcDbLinetypeTableRecord
  2
DASHEDX2
 70
     0
  3
CADPAC LINETYPE
 72
    65
 73
     2
 40
5.984886649874056
 49
4.987405541561714
 74
     0
 49
-0.9974811083123427
 74
     0
  0
LTYPE
  5
31
330
5
100
AcDbSymbolTableRecord
100
AcDbLinetypeTableRecord
  2
DOTX2
 70
     0
  3
CADPAC LINETYPE
 72
    65
 73
     2
 40
2.181989924433232
 49
0.0
 74
     0
 49
-2.181989924433232
 74
     0
  0
LTYPE
  5
32
330
5
100
AcDbSymbolTableRecord
100
AcDbLinetypeTableRecord
  2
DOT
 70
     0
  3
CADPAC LINETYPE
 72
    65
 73
     2
 40
1.745591939546586
 49
0.0
 74
     0
 49
-1.745591939546586
 74
     0
  0
LTYPE
  5
33
330
5
100
AcDbSymbolTableRecord
100
AcDbLinetypeTableRecord
  2
DOT2
 70
     0
  3
CADPAC LINETYPE
 72
    65
 73
     2
 40
1.309193954659939
 49
0.0
 74
     0
 49
-1.309193954659939
 74
     0
  0
LTYPE
  5
34
330
5
100
AcDbSymbolTableRecord
100
AcDbLinetypeTableRecord
  2
CENTERX2
 70
     0
  3
CADPAC LINETYPE
 72
    65
 73
     4
 40
7.48110831234257
 49
3.117128463476071
 74
     0
 49
-1.558564231738036
 74
     0
 49
1.246851385390428
 74
     0
 49
-1.558564231738036
 74
     0
  0
LTYPE
  5
35
330
5
100
AcDbSymbolTableRecord
100
AcDbLinetypeTableRecord
  2
CENTER
 70
     0
  3
CADPAC LINETYPE
 72
    65
 73
     4
 40
5.735516372795971
 49
2.493702770780857
 74
     0
 49
-1.246851385390428
 74
     0
 49
0.748110831234257
 74
     0
 49
-1.246851385390428
 74
     0
  0
LTYPE
  5
36
330
5
100
AcDbSymbolTableRecord
100
AcDbLinetypeTableRecord
  2
CENTER2
 70
     0
  3
CADPAC LINETYPE
 72
    65
 73
     4
 40
3.989924433249371
 49
1.870277078085643
 74
     0
 49
-0.9351385390428213
 74
     0
 49
0.2493702770780857
 74
     0
 49
-0.9351385390428213
 74
     0
  0
LTYPE
  5
37
330
5
100
AcDbSymbolTableRecord
100
AcDbLinetypeTableRecord
  2
DASHDOTX2
 70
     0
  3
CADPAC LINETYPE
 72
    65
 73
     4
 40
11.96977329974811
 49
5.984886649874056
 74
     0
 49
-1.994962216624685
 74
     0
 49
1.994962216624685
 74
     0
 49
-1.994962216624685
 74
     0
  0
LTYPE
  5
38
330
5
100
AcDbSymbolTableRecord
100
AcDbLinetypeTableRecord
  2
DASHDOT
 70
     0
  3
CADPAC LINETYPE
 72
    65
 73
     4
 40
5.984886649874056
 49
2.992443324937028
 74
     0
 49
-0.9974811083123427
 74
     0
 49
0.9974811083123427
 74
     0
 49
-0.9974811083123427
 74
     0
  0
LTYPE
  5
39
330
5
100
AcDbSymbolTableRecord
100
AcDbLinetypeTableRecord
  2
DASHDOT2
 70
     0
  3
CADPAC LINETYPE
 72
    65
 73
     4
 40
3.84030226700252
 49
2.244332493702771
 74
     0
 49
-0.748110831234257
 74
     0
 49
0.0997481108312343
 74
     0
 49
-0.748110831234257
 74
     0
  0
LTYPE
  5
3A
330
5
100
AcDbSymbolTableRecord
100
AcDbLinetypeTableRecord
  2
DIVIDEX2
 70
     0
  3
CADPAC LINETYPE
 72
    65
 73
     6
 40
15.95969773299748
 49
5.984886649874056
 74
     0
 49
-1.994962216624685
 74
     0
 49
1.994962216624685
 74
     0
 49
-1.994962216624685
 74
     0
 49
1.994962216624685
 74
     0
 49
-1.994962216624685
 74
     0
  0
LTYPE
  5
3B
330
5
100
AcDbSymbolTableRecord
100
AcDbLinetypeTableRecord
  2
DIVIDE
 70
     0
  3
CADPAC LINETYPE
 72
    65
 73
     6
 40
7.979848866498742
 49
2.992443324937028
 74
     0
 49
-0.9974811083123427
 74
     0
 49
0.9974811083123427
 74
     0
 49
-0.9974811083123427
 74
     0
 49
0.9974811083123427
 74
     0
 49
-0.9974811083123427
 74
     0
  0
LTYPE
  5
3C
330
5
100
AcDbSymbolTableRecord
100
AcDbLinetypeTableRecord
  2
DIVIDE2
 70
     0
  3
CADPAC LINETYPE
 72
    65
 73
     6
 40
5.984886649874056
 49
2.244332493702771
 74
     0
 49
-0.748110831234257
 74
     0
 49
0.748110831234257
 74
     0
 49
-0.748110831234257
 74
     0
 49
0.748110831234257
 74
     0
 49
-0.748110831234257
 74
     0
  0
LTYPE
  5
3D
330
5
100
AcDbSymbolTableRecord
100
AcDbLinetypeTableRecord
  2
BORDERX2
 70
     0
  3
CADPAC LINETYPE
 72
    65
 73
     6
 40
10.90994962216625
 49
3.117128463476071
 74
     0
 49
-1.558564231738036
 74
     0
 49
3.117128463476071
 74
     0
 49
-1.558564231738036
 74
     0
 49
0.0
 74
     0
 49
-1.558564231738036
 74
     0
  0
LTYPE
  5
3E
330
5
100
AcDbSymbolTableRecord
100
AcDbLinetypeTableRecord
  2
BORDER
 70
     0
  3
CADPAC LINETYPE
 72
    65
 73
     6
 40
8.727959697732999
 49
2.493702770780857
 74
     0
 49
-1.246851385390428
 74
     0
 49
2.493702770780857
 74
     0
 49
-1.246851385390428
 74
     0
 49
0.0
 74
     0
 49
-1.246851385390428
 74
     0
  0
LTYPE
  5
3F
330
5
100
AcDbSymbolTableRecord
100
AcDbLinetypeTableRecord
  2
BORDER2
 70
     0
  3
CADPAC LINETYPE
 72
    65
 73
     6
 40
6.483627204030213
 49
1.994962216624685
 74
     0
 49
-1.246851385390414
 74
     0
 49
0.7481108312342713
 74
     0
 49
-1.246851385390414
 74
     0
 49
0.0
 74
     0
 49
-1.246851385390428
 74
     0
  0
LTYPE
  5
40
330
5
100
AcDbSymbolTableRecord
100
AcDbLinetypeTableRecord
  2
PHANTOMX2
 70
     0
  3
CADPAC LINETYPE
 72
    65
 73
     6
 40
9.351385390428213
 49
3.117128463476071
 74
     0
 49
-1.246851385390428
 74
     0
 49
1.246851385390428
 74
     0
 49
-1.246851385390428
 74
     0
 49
1.246851385390428
 74
     0
 49
-1.246851385390428
 74
     0
  0
LTYPE
  5
41
330
5
100
AcDbSymbolTableRecord
100
AcDbLinetypeTableRecord
  2
PHANTOM
 70
     0
  3
CADPAC LINETYPE
 72
    65
 73
     6
 40
7.730478589420656
 49
2.493702770780857
 74
     0
 49
-1.246851385390428
 74
     0
 49
0.748110831234257
 74
     0
 49
-1.246851385390428
 74
     0
 49
0.748110831234257
 74
     0
 49
-1.246851385390428
 74
     0
  0
LTYPE
  5
42
330
5
100
AcDbSymbolTableRecord
100
AcDbLinetypeTableRecord
  2
PHANTOM2
 70
     0
  3
CADPAC LINETYPE
 72
    65
 73
     6
 40
6.608312342569271
 49
1.870277078085643
 74
     0
 49
-1.246851385390428
 74
     0
 49
0.4987405541561714
 74
     0
 49
-1.246851385390428
 74
     0
 49
0.4987405541561714
 74
     0
 49
-1.246851385390428
 74
     0
  0
LTYPE
  5
43
330
5
100
AcDbSymbolTableRecord
100
AcDbLinetypeTableRecord
  2
ACAD_ISO06W100
 70
     0
  3
CADPAC LINETYPE
 72
    65
 73
     8
 40
13.21662468513853
 49
5.984886649874056
 74
     0
 49
-1.246851385390414
 74
     0
 49
0.7481108312342713
 74
     0
 49
-1.246851385390414
 74
     0
 49
0.7481108312342713
 74
     0
 49
-1.246851385390414
 74
     0
 49
0.7481108312342713
 74
     0
 49
-1.246851385390414
 74
     0
  0
LTYPE
  5
44
330
5
100
AcDbSymbolTableRecord
100
AcDbLinetypeTableRecord
  2
ACAD_ISO13W100
 70
     0
  3
CADPAC LINETYPE
 72
    65
 73
     8
 40
9.974811083123427
 49
2.493702770780857
 74
     0
 49
-1.246851385390428
 74
     0
 49
2.493702770780857
 74
     0
 49
-1.246851385390428
 74
     0
 49
0.0
 74
     0
 49
-1.246851385390428
 74
     0
 49
0.0
 74
     0
 49
-1.246851385390428
 74
     0
  0
LTYPE
  5
45
330
5
100
AcDbSymbolTableRecord
100
AcDbLinetypeTableRecord
  2
ACAD_ISO14W100
 70
     0
  3
CADPAC LINETYPE
 72
    65
 73
     8
 40
7.48110831234257
 49
2.493702770780857
 74
     0
 49
-1.246851385390428
 74
     0
 49
0.0
 74
     0
 49
-1.246851385390428
 74
     0
 49
0.0
 74
     0
 49
-1.246851385390428
 74
     0
 49
0.0
 74
     0
 49
-1.246851385390428
 74
     0
  0
ENDTAB
  0
TABLE
  2
LAYER
  5
2
330
0
100
AcDbSymbolTable
 70
     1
  0
LAYER
  5
10
330
2
100
AcDbSymbolTableRecord
100
AcDbLayerTableRecord
  2
0
 70
     0
 62
     7
  6
CONTINUOUS
  0
ENDTAB
  0
TABLE
  2
STYLE
  5
3
330
0
100
AcDbSymbolTable
 70
     2
  0
STYLE
  5
11
330
3
100
AcDbSymbolTableRecord
100
AcDbTextStyleTableRecord
  2
STANDARD
 70
     0
 40
0.0
 41
1.0
 50
0.0
 71
     0
 42
0.2
  3
txt
  4

  0
STYLE
  5
55
330
3
100
AcDbSymbolTableRecord
100
AcDbTextStyleTableRecord
  2
FDASTYLE0
 70
     0
 40
2.0
 41
0.8000000000000007
 50
0.0
 71
     0
 42
0.2
  3
txt.shx
  4
bigfont
  0
ENDTAB
  0
TABLE
  2
VIEW
  5
6
330
0
100
AcDbSymbolTable
 70
     0
  0
ENDTAB
  0
TABLE
  2
UCS
  5
7
330
0
100
AcDbSymbolTable
 70
     0
  0
ENDTAB
  0
TABLE
  2
APPID
  5
9
330
0
100
AcDbSymbolTable
 70
     2
  0
APPID
  5
12
330
9
100
AcDbSymbolTableRecord
100
AcDbRegAppTableRecord
  2
ACAD
 70
     0
  0
APPID
  5
2A
330
9
100
AcDbSymbolTableRecord
100
AcDbRegAppTableRecord
  2
DAFUSIONOUT
 70
     0
  0
ENDTAB
  0
TABLE
  2
DIMSTYLE
  5
A
330
0
100
AcDbSymbolTable
 70
     1
  0
DIMSTYLE
105
27
330
A
100
AcDbSymbolTableRecord
100
AcDbDimStyleTableRecord
  2
STANDARD
 70
     0
  3

  4

  5

  6

  7

 40
1.0
 41
0.18
 42
0.0625
 43
0.38
 44
0.18
 45
0.0
 46
0.0
 47
0.0
 48
0.0
140
0.18
141
0.09
142
0.0
143
25.4
144
1.0
145
0.0
146
1.0
147
0.09
 71
     0
 72
     0
 73
     1
 74
     1
 75
     0
 76
     0
 77
     0
 78
     0
170
     0
171
     2
172
     0
173
     0
174
     0
175
     0
176
     0
177
     0
178
     0
270
     2
271
     4
272
     4
273
     2
274
     2
340
11
275
     0
280
     0
281
     0
282
     0
283
     1
284
     0
285
     0
286
     0
287
     3
288
     0
  0
ENDTAB
  0
TABLE
  2
BLOCK_RECORD
  5
1
330
0
100
AcDbSymbolTable
 70
     3
  0
BLOCK_RECORD
  5
1F
330
1
100
AcDbSymbolTableRecord
100
AcDbBlockTableRecord
  2
*MODEL_SPACE
  0
BLOCK_RECORD
  5
1B
330
1
100
AcDbSymbolTableRecord
100
AcDbBlockTableRecord
  2
*PAPER_SPACE
  0
BLOCK_RECORD
  5
47
330
1
100
AcDbSymbolTableRecord
100
AcDbBlockTableRecord
  2
DA_IMAGEDIMGROUP_1
  0
BLOCK_RECORD
  5
4D
330
1
100
AcDbSymbolTableRecord
100
AcDbBlockTableRecord
  2
_OPEN30
  0
ENDTAB
  0
ENDSEC
  0
SECTION
  2
BLOCKS
  0
BLOCK
  5
20
330
1F
100
AcDbEntity
  8
0
100
AcDbBlockBegin
  2
*MODEL_SPACE
 70
     0
 71
     0
 10
0.0
 20
0.0
 30
0.0
  3
*MODEL_SPACE
  1

  0
ENDBLK
  5
21
330
1F
100
AcDbEntity
  8
0
100
AcDbBlockEnd
  0
BLOCK
  5
1C
330
1B
100
AcDbEntity
 67
     1
  8
0
100
AcDbBlockBegin
  2
*PAPER_SPACE
 70
     0
 71
     0
 10
0.0
 20
0.0
 30
0.0
  3
*PAPER_SPACE
  1

  0
ENDBLK
  5
1D
330
1B
100
AcDbEntity
 67
     1
  8
0
100
AcDbBlockEnd
  0
BLOCK
  5
48
330
47
100
AcDbEntity
  8
0
100
AcDbBlockBegin
  2
DA_IMAGEDIMGROUP_1
 70
     0
 71
     0
 10
0.0
 20
0.0
 30
0.0
  3
DA_IMAGEDIMGROUP_1
  1

  0
LINE
  5
4A
330
47
100
AcDbEntity
  8
0
  6
CONTINUOUS
 62
     9
100
AcDbLine
 10
24.15000047683716
 20
3.399999899679576
 30
0.0
 11
24.15000047683716
 21
15.0
 31
0.0
  0
LINE
  5
4B
330
47
100
AcDbEntity
  8
0
  6
CONTINUOUS
 62
     9
100
AcDbLine
 10
19.14999952316284
 20
5.563235796366685
 30
0.0
 11
19.14999952316284
 21
15.0
 31
0.0
  0
LINE
  5
4C
330
47
100
AcDbEntity
  8
0
  6
CONTINUOUS
 62
     9
100
AcDbLine
 10
19.14999952316284
 20
14.5
 30
0.0
 11
24.15000047683716
 21
14.5
 31
0.0
  0
INSERT
  5
53
330
47
100
AcDbEntity
  8
0
 62
     9
100
AcDbBlockReference
  2
_OPEN30
 10
19.14999952316284
 20
14.5
 30
0.0
 41
1.500001393912182
 42
1.499994636989232
 50
180.0
  0
INSERT
  5
54
330
47
100
AcDbEntity
  8
0
 62
     9
100
AcDbBlockReference
  2
_OPEN30
 10
24.15000047683716
 20
14.5
 30
0.0
 41
1.500001393912182
 42
1.499994636989232
 50
360.0
  0
TEXT
  5
56
330
47
100
AcDbEntity
  8
0
 62
     7
100
AcDbText
 10
20.85
 20
15.0
 30
0.0
 40
2.0
  1
5
 41
0.8000000000000007
  7
FDASTYLE0
 72
     5
 11
22.45
 21
15.0
 31
0.0
100
AcDbText
  0
ENDBLK
  5
49
330
47
100
AcDbEntity
  8
0
100
AcDbBlockEnd
  0
BLOCK
  5
4E
330
4D
100
AcDbEntity
  8
0
100
AcDbBlockBegin
  2
_OPEN30
 70
     0
 71
     0
 10
0.0
 20
0.0
 30
0.0
  3
_OPEN30
  1

  0
LINE
  5
50
330
4D
100
AcDbEntity
  8
0
  6
BYBLOCK
 62
     0
100
AcDbLine
 10
-1.0
 20
0.267949
 30
0.0
 11
0.0
 21
0.0
 31
0.0
  0
LINE
  5
51
330
4D
100
AcDbEntity
  8
0
  6
BYBLOCK
 62
     0
100
AcDbLine
 10
0.0
 20
0.0
 30
0.0
 11
-1.0
 21
-0.267949
 31
0.0
  0
LINE
  5
52
330
4D
100
AcDbEntity
  8
0
  6
BYBLOCK
 62
     0
100
AcDbLine
 10
0.0
 20
0.0
 30
0.0
 11
-1.0
 21
0.0
 31
0.0
  0
ENDBLK
  5
4F
330
4D
100
AcDbEntity
  8
0
100
AcDbBlockEnd
  0
ENDSEC
  0
SECTION
  2
ENTITIES
  0
LINE
  5
57
330
1F
100
AcDbEntity
  8
0
  6
CONTINUOUS
 62
     3
100
AcDbLine
 10
45.65000047683719
 20
2.600000000000181
 30
0.0
 11
43.65000047683719
 21
2.600000000000152
 31
0.0
  0
LINE
  5
58
330
1F
100
AcDbEntity
  8
0
  6
CONTINUOUS
 62
     3
100
AcDbLine
 10
45.65000047683716
 20
3.000000000000158
 30
0.0
 11
45.65000047683719
 21
2.600000000000181
 31
0.0
  0
LINE
  5
59
330
1F
100
AcDbEntity
  8
0
  6
CONTINUOUS
 62
     3
100
AcDbLine
 10
43.65000047683719
 20
3.000000000000158
 30
0.0
 11
43.65000047683719
 21
2.600000000000152
 31
0.0
  0
LINE
  5
5A
330
1F
100
AcDbEntity
  8
0
  6
CONTINUOUS
 62
     3
100
AcDbLine
 10
43.65000047683718
 20
-6.599999999999836
 30
0.0
 11
45.65000047683715
 21
-6.599999999999836
 31
0.0
  0
LINE
  5
5B
330
1F
100
AcDbEntity
  8
0
  6
CONTINUOUS
 62
     3
100
AcDbLine
 10
43.65000047683718
 20
-6.999999999999814
 30
0.0
 11
43.65000047683718
 21
-6.599999999999836
 31
0.0
  0
LINE
  5
5C
330
1F
100
AcDbEntity
  8
0
  6
CONTINUOUS
 62
     3
100
AcDbLine
 10
45.65000047683716
 20
-6.999999999999814
 30
0.0
 11
45.65000047683716
 21
-6.599999999999836
 31
0.0
  0
LINE
  5
5D
330
1F
100
AcDbEntity
  8
0
  6
CONTINUOUS
 62
     3
100
AcDbLine
 10
45.65000047683716
 20
3.000000000000158
 30
0.0
 11
43.65000047683719
 21
3.000000000000158
 31
0.0
  0
LINE
  5
5E
330
1F
100
AcDbEntity
  8
0
  6
CONTINUOUS
 62
     3
100
AcDbLine
 10
43.65000047683718
 20
-6.999999999999814
 30
0.0
 11
45.65000047683716
 21
-6.999999999999814
 31
0.0
  0
LINE
  5
5F
330
1F
100
AcDbEntity
  8
0
  6
CONTINUOUS
 62
     3
100
AcDbLine
 10
40.90000047683716
 20
-5.749999999999785
 30
0.0
 11
39.92525560544557
 21
-5.749999999999814
 31
0.0
  0
LINE
  5
60
330
1F
100
AcDbEntity
  8
0
  6
CONTINUOUS
 62
     3
100
AcDbLine
 10
40.90000047683716
 20
-6.724744871391392
 30
0.0
 11
40.90000047683716
 21
-5.749999999999785
 31
0.0
  0
LINE
  5
61
330
1F
100
AcDbEntity
  8
0
  6
CONTINUOUS
 62
     3
100
AcDbLine
 10
40.90000047683716
 20
-5.249999999999785
 30
0.0
 11
40.90000047683716
 21
-4.275255128608206
 31
0.0
  0
LINE
  5
62
330
1F
100
AcDbEntity
  8
0
  6
CONTINUOUS
 62
     3
100
AcDbLine
 10
41.40000047683716
 20
-4.275255128608206
 30
0.0
 11
41.40000047683716
 21
-5.249999999999785
 31
0.0
  0
LINE
  5
63
330
1F
100
AcDbEntity
  8
0
  6
CONTINUOUS
 62
     3
100
AcDbLine
 10
41.40000047683718
 20
-5.749999999999785
 30
0.0
 11
41.40000047683715
 21
-6.724744871391364
 31
0.0
  0
LINE
  5
64
330
1F
100
AcDbEntity
  8
0
  6
CONTINUOUS
 62
     3
100
AcDbLine
 10
39.92525560544559
 20
-5.249999999999785
 30
0.0
 11
40.90000047683716
 21
-5.249999999999785
 31
0.0
  0
LINE
  5
65
330
1F
100
AcDbEntity
  8
0
  6
CONTINUOUS
 62
     3
100
AcDbLine
 10
42.37474534822876
 20
-5.749999999999785
 30
0.0
 11
41.40000047683718
 21
-5.749999999999785
 31
0.0
  0
LINE
  5
66
330
1F
100
AcDbEntity
  8
0
  6
CONTINUOUS
 62
     3
100
AcDbLine
 10
41.40000047683716
 20
-5.249999999999785
 30
0.0
 11
42.37474534822874
 21
-5.249999999999785
 31
0.0
  0
CIRCLE
  5
67
330
1F
100
AcDbEntity
  8
0
  6
CONTINUOUS
 62
     3
100
AcDbCircle
 10
41.15000047683716
 20
-5.499999999999814
 30
0.0
 40
1.25
  0
CIRCLE
  5
68
330
1F
100
AcDbEntity
  8
0
  6
CONTINUOUS
 62
     3
100
AcDbCircle
 10
44.65000047683716
 20
-1.99999999999987
 30
0.0
 40
8.5
  0
CIRCLE
  5
69
330
1F
100
AcDbEntity
  8
0
  6
CONTINUOUS
 62
     3
100
AcDbCircle
 10
44.65000047683716
 20
-1.99999999999987
 30
0.0
 40
7.5
  0
ARC
  5
6A
330
1F
100
AcDbEntity
  8
0
  6
CONTINUOUS
 62
     3
100
AcDbCircle
 10
44.65000047683716
 20
-1.999999999999785
 30
0.0
 40
6.7
100
AcDbArc
 50
111.7753128152793
 51
249.2164404041543
  0
ARC
  5
6B
330
1F
100
AcDbEntity
  8
0
  6
CONTINUOUS
 62
     3
100
AcDbCircle
 10
42.45000047683713
 20
-7.796550698475569
 30
0.0
 40
0.5
100
AcDbArc
 50
249.2164404041543
 51
360.0
  0
LINE
  5
6C
330
1F
100
AcDbEntity
  8
0
  6
CONTINUOUS
 62
     3
100
AcDbLine
 10
42.95000047683715
 20
-6.249999886750954
 30
0.0
 11
42.95000047683715
 21
-7.796550698475569
 31
0.0
  0
ARC
  5
6D
330
1F
100
AcDbEntity
  8
0
  6
CONTINUOUS
 62
     3
100
AcDbCircle
 10
43.45000047683715
 20
-6.249999886750954
 30
0.0
 40
0.5
100
AcDbArc
 50
90.0
 51
180.0
  0
LINE
  5
6E
330
1F
100
AcDbEntity
  8
0
  6
CONTINUOUS
 62
     3
100
AcDbLine
 10
43.45000047683716
 20
-5.749999886750954
 30
0.0
 11
45.95000047683715
 21
-5.749999886750954
 31
0.0
  0
ARC
  5
6F
330
1F
100
AcDbEntity
  8
0
  6
CONTINUOUS
 62
     3
100
AcDbCircle
 10
45.95000047683713
 20
-6.249999886750954
 30
0.0
 40
0.5
100
AcDbArc
 50
360.0
 51
450.0
  0
LINE
  5
70
330
1F
100
AcDbEntity
  8
0
  6
CONTINUOUS
 62
     3
100
AcDbLine
 10
46.45000047683713
 20
-6.249999886750954
 30
0.0
 11
46.45000047683715
 21
-7.75760366819368
 31
0.0
  0
ARC
  5
71
330
1F
100
AcDbEntity
  8
0
  6
CONTINUOUS
 62
     3
100
AcDbCircle
 10
46.95000047683713
 20
-7.757603668193708
 30
0.0
 40
0.5
100
AcDbArc
 50
180.0
 51
291.7753128152795
  0
ARC
  5
72
330
1F
100
AcDbEntity
  8
0
  6
CONTINUOUS
 62
     3
100
AcDbCircle
 10
44.65000047683716
 20
-1.999999999999785
 30
0.0
 40
6.7
100
AcDbArc
 50
291.7753128152794
 51
428.2246871847206
  0
ARC
  5
73
330
1F
100
AcDbEntity
  8
0
  6
CONTINUOUS
 62
     3
100
AcDbCircle
 10
46.95000047683715
 20
3.757603668194138
 30
0.0
 40
0.5
100
AcDbArc
 50
68.22468718472074
 51
180.0
  0
LINE
  5
74
330
1F
100
AcDbEntity
  8
0
  6
CONTINUOUS
 62
     3
100
AcDbLine
 10
46.45000047683716
 20
2.249999886751384
 30
0.0
 11
46.45000047683716
 21
3.757603668194138
 31
0.0
  0
ARC
  5
75
330
1F
100
AcDbEntity
  8
0
  6
CONTINUOUS
 62
     3
100
AcDbCircle
 10
45.95000047683713
 20
2.249999886751384
 30
0.0
 40
0.5
100
AcDbArc
 50
270.0
 51
360.0
  0
LINE
  5
76
330
1F
100
AcDbEntity
  8
0
  6
CONTINUOUS
 62
     3
100
AcDbLine
 10
43.35000047683717
 20
1.749999886751384
 30
0.0
 11
45.95000047683715
 21
1.749999886751384
 31
0.0
  0
ARC
  5
77
330
1F
100
AcDbEntity
  8
0
  6
CONTINUOUS
 62
     3
100
AcDbCircle
 10
43.35000047683715
 20
2.249999886751384
 30
0.0
 40
0.5
100
AcDbArc
 50
180.0
 51
270.0
  0
LINE
  5
78
330
1F
100
AcDbEntity
  8
0
  6
CONTINUOUS
 62
     3
100
AcDbLine
 10
42.85000047683718
 20
2.249999886751413
 30
0.0
 11
42.85000047683718
 21
3.757603668194138
 31
0.0
  0
ARC
  5
79
330
1F
100
AcDbEntity
  8
0
  6
CONTINUOUS
 62
     3
100
AcDbCircle
 10
42.35000047683715
 20
3.757603668194138
 30
0.0
 40
0.5
100
AcDbArc
 50
360.0
 51
471.7753128152791
  0
LINE
  5
7A
330
1F
100
AcDbEntity
  8
0
  6
CONTINUOUS
 62
     3
100
AcDbLine
 10
-5.85000047683715
 20
-4.999999821186078
 30
0.0
 11
-6.65000047683716
 21
-4.999999821186078
 31
0.0
  0
LINE
  5
7B
330
1F
100
AcDbEntity
  8
0
  6
CONTINUOUS
 62
     3
100
AcDbLine
 10
17.94999952316285
 20
-9.500000077485977
 30
0.0
 11
19.14999952316285
 21
-9.063235796366554
 31
0.0
  0
LINE
  5
7C
330
1F
100
AcDbEntity
  8
0
  6
CONTINUOUS
 62
     3
100
AcDbLine
 10
-5.85000047683715
 20
1.000000238418567
 30
0.0
 11
-6.65000047683716
 21
1.000000238418595
 31
0.0
  0
LINE
  5
7D
330
1F
100
AcDbEntity
  8
0
  6
CONTINUOUS
 62
     3
100
AcDbLine
 10
19.14999952316285
 20
-9.063235796366554
 30
0.0
 11
19.14999952316284
 21
5.063235796366685
 31
0.0
  0
LINE
  5
7E
330
1F
100
AcDbEntity
  8
0
  6
CONTINUOUS
 62
     3
100
AcDbLine
 10
17.94999952316285
 20
5.500000077486108
 30
0.0
 11
19.14999952316284
 21
5.063235796366685
 31
0.0
  0
CIRCLE
  5
7F
330
1F
100
AcDbEntity
  8
0
  6
CONTINUOUS
 62
     3
100
AcDbCircle
 10
-44.65000047683716
 20
-1.999999791383784
 30
0.0
 40
8.0
  0
CIRCLE
  5
80
330
1F
100
AcDbEntity
  8
0
  6
CONTINUOUS
 62
     3
100
AcDbCircle
 10
-44.65000047683716
 20
-1.999999791383784
 30
0.0
 40
3.0
  0
CIRCLE
  5
81
330
1F
100
AcDbEntity
  8
0
  6
CONTINUOUS
 62
     3
100
AcDbCircle
 10
-49.65000047683721
 20
-1.999999791383784
 30
0.0
 40
0.6
  0
CIRCLE
  5
82
330
1F
100
AcDbEntity
  8
0
  6
CONTINUOUS
 62
     3
100
AcDbCircle
 10
-39.65000047683711
 20
-1.999999791383784
 30
0.0
 40
0.6
  0
LINE
  5
83
330
1F
100
AcDbEntity
  8
0
  6
CONTINUOUS
 62
     3
100
AcDbLine
 10
14.9499995231628
 20
6.499999791383816
 30
0.0
 11
17.94999952316281
 21
5.971018849258416
 31
0.0
  0
LINE
  5
84
330
1F
100
AcDbEntity
  8
0
  6
CONTINUOUS
 62
     3
100
AcDbLine
 10
14.9499995231628
 20
-10.50000020861618
 30
0.0
 11
17.94999952316281
 21
-9.971019266490783
 31
0.0
  0
LINE
  5
85
330
1F
100
AcDbEntity
  8
0
  6
CONTINUOUS
 62
     3
100
AcDbLine
 10
-5.650000476837161
 20
6.499999999999988
 30
0.0
 11
14.9499995231628
 21
6.499999791383816
 31
0.0
  0
LINE
  5
86
330
1F
100
AcDbEntity
  8
0
  6
CONTINUOUS
 62
     3
100
AcDbLine
 10
14.9499995231628
 20
-10.50000020861618
 30
0.0
 11
-5.650000476837165
 21
-10.50000000000001
 31
0.0
  0
LINE
  5
87
330
1F
100
AcDbEntity
  8
0
  6
CONTINUOUS
 62
     3
100
AcDbLine
 10
14.9499995231628
 20
6.499999791383816
 30
0.0
 11
17.94999952316281
 21
5.971018849258416
 31
0.0
  0
LINE
  5
88
330
1F
100
AcDbEntity
  8
0
  6
CONTINUOUS
 62
     3
100
AcDbLine
 10
14.9499995231628
 20
-10.50000020861618
 30
0.0
 11
17.94999952316281
 21
-9.971019266490783
 31
0.0
  0
LINE
  5
89
330
1F
100
AcDbEntity
  8
0
  6
CONTINUOUS
 62
     3
100
AcDbLine
 10
-5.850000476837164
 20
-10.3
 30
0.0
 11
-5.850000476837164
 21
6.299999999999999
 31
0.0
  0
LINE
  5
8A
330
1F
100
AcDbEntity
  8
0
  6
CONTINUOUS
 62
     3
100
AcDbLine
 10
17.94999952316281
 20
5.971018849258416
 30
0.0
 11
17.94999952316281
 21
-9.971019266490783
 31
0.0
  0
LINE
  5
8B
330
1F
100
AcDbEntity
  8
0
  6
CONTINUOUS
 62
     3
100
AcDbLine
 10
14.9499995231628
 20
6.499999791383816
 30
0.0
 11
14.9499995231628
 21
-10.50000020861618
 31
0.0
  0
LINE
  5
8C
330
1F
100
AcDbEntity
  8
0
  6
CONTINUOUS
 62
     3
100
AcDbLine
 10
-5.850000476837164
 20
6.299999999999999
 30
0.0
 11
-5.650000476837161
 21
6.499999999999988
 31
0.0
  0
LINE
  5
8D
330
1F
100
AcDbEntity
  8
0
  6
CONTINUOUS
 62
     3
100
AcDbLine
 10
-5.850000476837164
 20
-10.3
 30
0.0
 11
-5.650000476837165
 21
-10.50000000000001
 31
0.0
  0
LINE
  5
8E
330
1F
100
AcDbEntity
  8
0
  6
CONTINUOUS
 62
     3
100
AcDbLine
 10
-6.65000047683716
 20
-4.999999821186078
 30
0.0
 11
-6.65000047683716
 21
-1.999999791383756
 31
0.0
  0
LINE
  5
8F
330
1F
100
AcDbEntity
  8
0
  6
CONTINUOUS
 62
     3
100
AcDbLine
 10
-6.65000047683716
 20
1.000000238418595
 30
0.0
 11
-6.65000047683716
 21
-1.999999791383756
 31
0.0
  0
LINE
  5
90
330
1F
100
AcDbEntity
  8
0
  6
CONTINUOUS
 62
     3
100
AcDbLine
 10
-6.750000476837155
 20
-0.4999997913837557
 30
0.0
 11
-6.750000476837155
 21
-3.499999791383756
 31
0.0
  0
LINE
  5
91
330
1F
100
AcDbEntity
  8
0
  6
CONTINUOUS
 62
     3
100
AcDbLine
 10
-7.750000476837155
 20
-0.4999997913837557
 30
0.0
 11
-7.750000476837155
 21
-3.499999791383756
 31
0.0
  0
LINE
  5
92
330
1F
100
AcDbEntity
  8
0
  6
CONTINUOUS
 62
     3
100
AcDbLine
 10
-12.95000047683717
 20
-1.249999791383756
 30
0.0
 11
-7.750000476837155
 21
-1.249999791383756
 31
0.0
  0
LINE
  5
93
330
1F
100
AcDbEntity
  8
0
  6
CONTINUOUS
 62
     3
100
AcDbLine
 10
-12.95000047683717
 20
-2.749999791383756
 30
0.0
 11
-7.750000476837155
 21
-2.749999791383756
 31
0.0
  0
LINE
  5
94
330
1F
100
AcDbEntity
  8
0
  6
CONTINUOUS
 62
     3
100
AcDbLine
 10
-13.15000047683716
 20
-1.449999791383744
 30
0.0
 11
-13.15000047683716
 21
-2.549999791383767
 31
0.0
  0
ARC
  5
95
330
1F
100
AcDbEntity
  8
0
  6
CONTINUOUS
 62
     3
100
AcDbCircle
 10
-12.95000047683717
 20
-1.449999791383744
 30
0.0
 40
0.2
100
AcDbArc
 50
90.0
 51
180.0
  0
ARC
  5
96
330
1F
100
AcDbEntity
  8
0
  6
CONTINUOUS
 62
     3
100
AcDbCircle
 10
-12.95000047683717
 20
-2.549999791383767
 30
0.0
 40
0.2
100
AcDbArc
 50
180.0
 51
270.0
  0
LINE
  5
97
330
1F
100
AcDbEntity
  8
0
  6
CONTINUOUS
 62
     3
100
AcDbLine
 10
-7.750000476837155
 20
-0.4999997913837557
 30
0.0
 11
-6.65000047683716
 21
-0.4999997913837557
 31
0.0
  0
LINE
  5
98
330
1F
100
AcDbEntity
  8
0
  6
CONTINUOUS
 62
     3
100
AcDbLine
 10
-7.750000476837155
 20
-3.499999791383756
 30
0.0
 11
-6.65000047683716
 21
-3.499999791383756
 31
0.0
  0
CIRCLE
  5
99
330
1F
100
AcDbEntity
  8
0
  6
CONTINUOUS
 62
     3
100
AcDbCircle
 10
-44.65000047683716
 20
-1.999999791383784
 30
0.0
 40
1.5
  0
CIRCLE
  5
9A
330
1F
100
AcDbEntity
  8
0
  6
CONTINUOUS
 62
     3
100
AcDbCircle
 10
-44.65000047683716
 20
-1.999999791383784
 30
0.0
 40
0.75
  0
CIRCLE
  5
9B
330
1F
100
AcDbEntity
  8
0
  6
CONTINUOUS
 62
     3
100
AcDbCircle
 10
-44.65000047683716
 20
-1.999999791383784
 30
0.0
 40
8.5
  0
LINE
  5
9C
330
1F
100
AcDbEntity
  8
0
  6
CONTINUOUS
 62
     3
100
AcDbLine
 10
19.14999952316284
 20
4.000000012928402
 30
0.0
 11
19.74999952316285
 21
4.000000012928402
 31
0.0
  0
LINE
  5
9D
330
1F
100
AcDbEntity
  8
0
  6
CONTINUOUS
 62
     3
100
AcDbLine
 10
24.15000047683716
 20
-6.599999873822776
 30
0.0
 11
20.34999952316285
 21
-6.599999873822776
 31
0.0
  0
LINE
  5
9E
330
1F
100
AcDbEntity
  8
0
  6
CONTINUOUS
 62
     3
100
AcDbLine
 10
24.15000047683716
 20
-6.899999873822781
 30
0.0
 11
20.34999952316285
 21
-6.899999873822781
 31
0.0
  0
LINE
  5
9F
330
1F
100
AcDbEntity
  8
0
  6
CONTINUOUS
 62
     3
100
AcDbLine
 10
19.64999952316286
 20
-2.997126252754805
 30
0.0
 11
19.64999952316286
 21
-1.999999987071613
 31
0.0
  0
LINE
  5
A0
330
1F
100
AcDbEntity
  8
0
  6
CONTINUOUS
 62
     3
100
AcDbLine
 10
24.15000047683716
 20
2.899999899679576
 30
0.0
 11
24.15000047683716
 21
2.599999899679565
 31
0.0
  0
LINE
  5
A1
330
1F
100
AcDbEntity
  8
0
  6
CONTINUOUS
 62
     3
100
AcDbLine
 10
24.15000047683716
 20
2.599999899679565
 30
0.0
 11
20.34999952316285
 21
2.599999899679565
 31
0.0
  0
LINE
  5
A2
330
1F
100
AcDbEntity
  8
0
  6
CONTINUOUS
 62
     3
100
AcDbLine
 10
24.15000047683716
 20
2.899999899679576
 30
0.0
 11
20.34999952316285
 21
2.899999899679576
 31
0.0
  0
LINE
  5
A3
330
1F
100
AcDbEntity
  8
0
  6
CONTINUOUS
 62
     3
100
AcDbLine
 10
19.64999952316284
 20
-1.002873721388392
 30
0.0
 11
19.64999952316286
 21
-1.999999987071599
 31
0.0
  0
ARC
  5
A4
330
1F
100
AcDbEntity
  8
0
  6
CONTINUOUS
 62
     3
100
AcDbCircle
 10
19.74999952316285
 20
3.400000012928393
 30
0.0
 40
0.6
100
AcDbArc
 50
0.0000000000000472
 51
90.00000000000006
  0
LINE
  5
A5
330
1F
100
AcDbEntity
  8
0
  6
CONTINUOUS
 62
     3
100
AcDbLine
 10
24.15000047683716
 20
-6.599999873822776
 30
0.0
 11
24.15000047683716
 21
-6.899999873822781
 31
0.0
  0
LINE
  5
A6
330
1F
100
AcDbEntity
  8
0
  6
CONTINUOUS
 62
     3
100
AcDbLine
 10
19.64999952316284
 20
-1.002873721388392
 30
0.0
 11
19.14999952316284
 21
-1.002873721388392
 31
0.0
  0
LINE
  5
A7
330
1F
100
AcDbEntity
  8
0
  6
CONTINUOUS
 62
     3
100
AcDbLine
 10
19.64999952316286
 20
-2.997126252754805
 30
0.0
 11
19.14999952316286
 21
-2.997126252754805
 31
0.0
  0
LINE
  5
A8
330
1F
100
AcDbEntity
  8
0
  6
CONTINUOUS
 62
     3
100
AcDbLine
 10
20.34999952316285
 20
3.400000012928393
 30
0.0
 11
20.34999952316286
 21
-7.399999987071604
 31
0.0
  0
LINE
  5
A9
330
1F
100
AcDbEntity
  8
0
  6
CONTINUOUS
 62
     3
100
AcDbLine
 10
19.14999952316286
 20
-7.999999987071606
 30
0.0
 11
19.74999952316285
 21
-7.999999987071606
 31
0.0
  0
ARC
  5
AA
330
1F
100
AcDbEntity
  8
0
  6
CONTINUOUS
 62
     3
100
AcDbCircle
 10
19.74999952316285
 20
-7.399999987071604
 30
0.0
 40
0.6
100
AcDbArc
 50
270.0
 51
360.0
  0
LINE
  5
AB
330
1F
100
AcDbEntity
  8
0
  6
CENTER
 62
     9
100
AcDbLine
 10
54.15000047683716
 20
-1.999999999999899
 30
0.0
 11
35.15000047683705
 21
-1.999999999999927
 31
0.0
  0
LINE
  5
AC
330
1F
100
AcDbEntity
  8
0
  6
CENTER
 62
     9
100
AcDbLine
 10
44.65000047683711
 20
7.50000000000013
 30
0.0
 11
44.65000047683711
 21
-11.49999999999998
 31
0.0
  0
LINE
  5
AD
330
1F
100
AcDbEntity
  8
0
  6
CENTER
 62
     9
100
AcDbLine
 10
44.65000047683715
 20
7.50000000000013
 30
0.0
 11
44.65000047683716
 21
-1.999999999999785
 31
0.0
  0
LINE
  5
AE
330
1F
100
AcDbEntity
  8
0
  6
CONTINUOUS
 62
     9
100
AcDbLine
 10
24.96345323596868
 20
-14.5
 30
0.0
 11
36.15000047683716
 21
-14.5
 31
0.0
  0
CIRCLE
  5
AF
330
1F
100
AcDbEntity
  8
0
  6
CONTINUOUS
 62
     9
100
AcDbCircle
 10
-49.65000047683721
 20
-1.999999791383784
 30
0.0
 40
0.85
  0
CIRCLE
  5
B0
330
1F
100
AcDbEntity
  8
0
  6
CONTINUOUS
 62
     9
100
AcDbCircle
 10
-39.65000047683711
 20
-1.999999791383784
 30
0.0
 40
0.85
  0
LINE
  5
B1
330
1F
100
AcDbEntity
  8
0
  6
CONTINUOUS
 62
     9
100
AcDbLine
 10
-53.15000047683716
 20
-14.5
 30
0.0
 11
-28.90933704522378
 21
-14.5
 31
0.0
  0
LINE
  5
B2
330
1F
100
AcDbEntity
  8
0
  6
CONTINUOUS
 62
     9
100
AcDbLine
 10
-13.45000047683717
 20
-2.749999791383756
 30
0.0
 11
-18.65000047683716
 21
-2.749999791383756
 31
0.0
  0
LINE
  5
B3
330
1F
100
AcDbEntity
  8
0
  6
CONTINUOUS
 62
     9
100
AcDbLine
 10
-13.45000047683717
 20
-1.249999791383756
 30
0.0
 11
-18.65000047683716
 21
-1.249999791383756
 31
0.0
  0
LINE
  5
B4
330
1F
100
AcDbEntity
  8
0
  6
CONTINUOUS
 62
     9
100
AcDbLine
 10
-18.15000047683716
 20
-2.749999791383756
 30
0.0
 11
-18.15000047683716
 21
-1.249999791383756
 31
0.0
  0
LINE
  5
B5
330
1F
100
AcDbEntity
  8
0
  6
CONTINUOUS
 62
     9
100
AcDbLine
 10
-7.15000047683716
 20
-4.999999821186078
 30
0.0
 11
-28.65000047683716
 21
-4.999999821186078
 31
0.0
  0
LINE
  5
B6
330
1F
100
AcDbEntity
  8
0
  6
CONTINUOUS
 62
     9
100
AcDbLine
 10
-7.15000047683716
 20
1.000000238418595
 30
0.0
 11
-28.65000047683716
 21
1.000000238418595
 31
0.0
  0
LINE
  5
B7
330
1F
100
AcDbEntity
  8
0
  6
CONTINUOUS
 62
     9
100
AcDbLine
 10
-8.250000476837155
 20
-3.499999791383756
 30
0.0
 11
-23.65000047683716
 21
-3.499999791383756
 31
0.0
  0
LINE
  5
B8
330
1F
100
AcDbEntity
  8
0
  6
CONTINUOUS
 62
     9
100
AcDbLine
 10
-8.250000476837155
 20
-0.4999997913837557
 30
0.0
 11
-23.65000047683716
 21
-0.4999997913837557
 31
0.0
  0
LINE
  5
B9
330
1F
100
AcDbEntity
  8
0
  6
CONTINUOUS
 62
     9
100
AcDbLine
 10
-23.15000047683716
 20
-3.499999791383756
 30
0.0
 11
-23.15000047683716
 21
-0.4999997913837557
 31
0.0
  0
LINE
  5
BA
330
1F
100
AcDbEntity
  8
0
  6
CONTINUOUS
 62
     9
100
AcDbLine
 10
-6.65000047683716
 20
1.500000238418595
 30
0.0
 11
-6.65000047683716
 21
11.0000002086162
 31
0.0
  0
LINE
  5
BB
330
1F
100
AcDbEntity
  8
0
  6
CONTINUOUS
 62
     9
100
AcDbLine
 10
-5.850000476837164
 20
6.799999999999999
 30
0.0
 11
-5.850000476837164
 21
14.5
 31
0.0
  0
LINE
  5
BC
330
1F
100
AcDbEntity
  8
0
  6
CONTINUOUS
 62
     9
100
AcDbLine
 10
-6.65000047683716
 20
10.5000002086162
 30
0.0
 11
-5.850000476837164
 21
10.5000002086162
 31
0.0
  0
LINE
  5
BD
330
1F
100
AcDbEntity
  8
0
  6
CONTINUOUS
 62
     9
100
AcDbLine
 10
-13.15000047683716
 20
-0.9499997913837444
 30
0.0
 11
-13.15000047683716
 21
15.0
 31
0.0
  0
LINE
  5
BE
330
1F
100
AcDbEntity
  8
0
  6
CONTINUOUS
 62
     9
100
AcDbLine
 10
-5.850000476837164
 20
6.799999999999999
 30
0.0
 11
-5.850000476837164
 21
15.0
 31
0.0
  0
LINE
  5
BF
330
1F
100
AcDbEntity
  8
0
  6
CONTINUOUS
 62
     9
100
AcDbLine
 10
19.14999952316284
 20
5.563235796366685
 30
0.0
 11
19.14999952316284
 21
14.9999997913838
 31
0.0
  0
LINE
  5
C0
330
1F
100
AcDbEntity
  8
0
  6
CONTINUOUS
 62
     9
100
AcDbLine
 10
-5.850000476837164
 20
-10.8
 30
0.0
 11
-5.850000476837164
 21
-15.0
 31
0.0
  0
LINE
  5
C1
330
1F
100
AcDbEntity
  8
0
  6
CONTINUOUS
 62
     9
100
AcDbLine
 10
-7.750000476837155
 20
-3.999999791383756
 30
0.0
 11
-7.750000476837155
 21
-15.0
 31
0.0
  0
LINE
  5
C2
330
1F
100
AcDbEntity
  8
0
  6
CONTINUOUS
 62
     9
100
AcDbLine
 10
-7.750000476837155
 20
-14.5
 30
0.0
 11
-5.850000476837164
 21
-14.5
 31
0.0
  0
LINE
  5
C3
330
1F
100
AcDbEntity
  8
0
  6
CONTINUOUS
 62
     9
100
AcDbLine
 10
-49.65000047683721
 20
-0.1499997913837898
 30
0.0
 11
-49.65000047683721
 21
11.00000020861622
 31
0.0
  0
LINE
  5
C4
330
1F
100
AcDbEntity
  8
0
  6
CONTINUOUS
 62
     9
100
AcDbLine
 10
-39.65000047683711
 20
-0.1499997913837898
 30
0.0
 11
-39.65000047683711
 21
11.00000020861622
 31
0.0
  0
LINE
  5
C5
330
1F
100
AcDbEntity
  8
0
  6
CONTINUOUS
 62
     9
100
AcDbLine
 10
20.34999952316285
 20
3.900000012928393
 30
0.0
 11
20.34999952316285
 21
11.0
 31
0.0
  0
LINE
  5
C6
330
1F
100
AcDbEntity
  8
0
  6
CONTINUOUS
 62
     9
100
AcDbLine
 10
19.14999952316284
 20
5.563235796366685
 30
0.0
 11
19.14999952316284
 21
14.4999997913838
 31
0.0
  0
LINE
  5
C7
330
1F
100
AcDbEntity
  8
0
  6
CONTINUOUS
 62
     9
100
AcDbLine
 10
19.14999952316284
 20
10.5
 30
0.0
 11
20.34999952316285
 21
10.5
 31
0.0
  0
LINE
  5
C8
330
1F
100
AcDbEntity
  8
0
  6
CONTINUOUS
 62
     9
100
AcDbLine
 10
24.65000047683716
 20
2.599999899679565
 30
0.0
 11
29.65000047683716
 21
2.599999899679565
 31
0.0
  0
LINE
  5
C9
330
1F
100
AcDbEntity
  8
0
  6
CONTINUOUS
 62
     9
100
AcDbLine
 10
24.65000047683716
 20
-6.59999987382278
 30
0.0
 11
29.65000047683716
 21
-6.59999987382278
 31
0.0
  0
LINE
  5
CA
330
1F
100
AcDbEntity
  8
0
  6
CENTER
 62
     9
100
AcDbLine
 10
-35.15000047683716
 20
-1.999999791383784
 30
0.0
 11
-54.15000047683716
 21
-1.999999791383784
 31
0.0
  0
LINE
  5
CB
330
1F
100
AcDbEntity
  8
0
  6
CENTER
 62
     9
100
AcDbLine
 10
-44.65000047683716
 20
7.500000208616216
 30
0.0
 11
-44.65000047683716
 21
-11.49999979138378
 31
0.0
  0
LINE
  5
CC
330
1F
100
AcDbEntity
  8
0
  6
CENTER
 62
     9
100
AcDbLine
 10
-49.65000047683721
 20
-3.349999791383779
 30
0.0
 11
-49.65000047683721
 21
-0.6499997913837898
 31
0.0
  0
LINE
  5
CD
330
1F
100
AcDbEntity
  8
0
  6
CENTER
 62
     9
100
AcDbLine
 10
-39.65000047683711
 20
-3.349999791383779
 30
0.0
 11
-39.65000047683711
 21
-0.6499997913837898
 31
0.0
  0
LINE
  5
CE
330
1F
100
AcDbEntity
  8
0
  6
CENTER
 62
     9
100
AcDbLine
 10
21.34999952316286
 20
-1.999999999999927
 30
0.0
 11
-14.15000047683716
 21
-1.999999791383727
 31
0.0
  0
LINE
  5
CF
330
1F
100
AcDbEntity
  8
0
  6
CONTINUOUS
 62
     9
100
AcDbLine
 10
-49.81177842964551
 20
-2.577778203913322
 30
0.0
 11
-53.15000047683716
 21
-14.5
 31
0.0
  0
INSERT
  5
D0
330
1F
100
AcDbEntity
  8
0
 62
     9
100
AcDbBlockReference
  2
_OPEN30
 10
-49.81177842964551
 20
-2.577778203913322
 30
0.0
 41
1.500001393912182
 42
1.499994636989232
 50
74.35775379106977
  0
LINE
  5
D1
330
1F
100
AcDbEntity
  8
0
  6
CONTINUOUS
 62
     9
100
AcDbLine
 10
-23.15000047683716
 20
-0.4999997913837557
 30
0.0
 11
-23.15000047683716
 21
2.445509155194786
 31
0.0
  0
INSERT
  5
D2
330
1F
100
AcDbEntity
  8
0
 62
     9
100
AcDbBlockReference
  2
_OPEN30
 10
-23.15000047683716
 20
-0.4999997913837557
 30
0.0
 41
1.500001393912182
 42
1.499994636989232
 50
270.0
  0
LINE
  5
D3
330
1F
100
AcDbEntity
  8
0
  6
CONTINUOUS
 62
     9
100
AcDbLine
 10
-23.15000047683716
 20
-3.499999791383756
 30
0.0
 11
-23.15000047683716
 21
-6.336557024036166
 31
0.0
  0
INSERT
  5
D4
330
1F
100
AcDbEntity
  8
0
 62
     9
100
AcDbBlockReference
  2
_OPEN30
 10
-23.15000047683716
 20
-3.499999791383756
 30
0.0
 41
1.500001393912182
 42
1.499994636989232
 50
90.0
  0
LINE
  5
D5
330
1F
100
AcDbEntity
  8
0
  6
CONTINUOUS
 62
     9
100
AcDbLine
 10
-28.15000047683716
 20
-4.999999821186078
 30
0.0
 11
-28.15000047683716
 21
1.000000238418595
 31
0.0
  0
INSERT
  5
D6
330
1F
100
AcDbEntity
  8
0
 62
     9
100
AcDbBlockReference
  2
_OPEN30
 10
-28.15000047683716
 20
-4.999999821186078
 30
0.0
 41
1.500001393912182
 42
1.499994636989232
 50
270.0
  0
INSERT
  5
D7
330
1F
100
AcDbEntity
  8
0
 62
     9
100
AcDbBlockReference
  2
_OPEN30
 10
-28.15000047683716
 20
1.000000238418595
 30
0.0
 41
1.500001393912182
 42
1.499994636989232
 50
90.0
  0
LINE
  5
D8
330
1F
100
AcDbEntity
  8
0
  6
CONTINUOUS
 62
     9
100
AcDbLine
 10
-13.15000047683716
 20
14.5000002086162
 30
0.0
 11
-5.850000476837164
 21
14.5000002086162
 31
0.0
  0
INSERT
  5
D9
330
1F
100
AcDbEntity
  8
0
 62
     9
100
AcDbBlockReference
  2
_OPEN30
 10
-13.15000047683716
 20
14.5000002086162
 30
0.0
 41
1.500001393912182
 42
1.499994636989232
 50
180.0
  0
INSERT
  5
DA
330
1F
100
AcDbEntity
  8
0
 62
     9
100
AcDbBlockReference
  2
_OPEN30
 10
-5.850000476837164
 20
14.5000002086162
 30
0.0
 41
1.500001393912182
 42
1.499994636989232
 50
360.0
  0
LINE
  5
DB
330
1F
100
AcDbEntity
  8
0
  6
CONTINUOUS
 62
     9
100
AcDbLine
 10
-5.850000476837164
 20
14.5000002086162
 30
0.0
 11
19.14999952316284
 21
14.5
 31
0.0
  0
INSERT
  5
DC
330
1F
100
AcDbEntity
  8
0
 62
     9
100
AcDbBlockReference
  2
_OPEN30
 10
-5.850000476837164
 20
14.5000002086162
 30
0.0
 41
1.500001393912182
 42
1.499994636989232
 50
179.9999995218869
  0
INSERT
  5
DD
330
1F
100
AcDbEntity
  8
0
 62
     9
100
AcDbBlockReference
  2
_OPEN30
 10
19.14999952316284
 20
14.5
 30
0.0
 41
1.500001393912182
 42
1.499994636989232
 50
359.9999995218869
  0
LINE
  5
DE
330
1F
100
AcDbEntity
  8
0
  6
CONTINUOUS
 62
     9
100
AcDbLine
 10
-49.65000047683721
 20
10.50000020861622
 30
0.0
 11
-39.65000047683711
 21
10.50000020861622
 31
0.0
  0
INSERT
  5
DF
330
1F
100
AcDbEntity
  8
0
 62
     9
100
AcDbBlockReference
  2
_OPEN30
 10
-49.65000047683721
 20
10.50000020861622
 30
0.0
 41
1.500001393912182
 42
1.499994636989232
 50
180.0
  0
INSERT
  5
E0
330
1F
100
AcDbEntity
  8
0
 62
     9
100
AcDbBlockReference
  2
_OPEN30
 10
-39.65000047683711
 20
10.50000020861622
 30
0.0
 41
1.500001393912182
 42
1.499994636989232
 50
360.0
  0
LINE
  5
E1
330
1F
100
AcDbEntity
  8
0
  6
CONTINUOUS
 62
     9
100
AcDbLine
 10
4.549999523162819
 20
-10.49999998031821
 30
0.0
 11
4.549999523162819
 21
6.500000019681788
 31
0.0
  0
INSERT
  5
E2
330
1F
100
AcDbEntity
  8
0
 62
     9
100
AcDbBlockReference
  2
_OPEN30
 10
4.549999523162819
 20
-10.49999998031821
 30
0.0
 41
1.500001393912182
 42
1.499994636989232
 50
270.0
  0
INSERT
  5
E3
330
1F
100
AcDbEntity
  8
0
 62
     9
100
AcDbBlockReference
  2
_OPEN30
 10
4.549999523162819
 20
6.500000019681788
 30
0.0
 41
1.500001393912182
 42
1.499994636989232
 50
90.0
  0
LINE
  5
E4
330
1F
100
AcDbEntity
  8
0
  6
CONTINUOUS
 62
     9
100
AcDbLine
 10
29.15000047683716
 20
2.599999899679565
 30
0.0
 11
29.15000047683716
 21
-6.59999987382278
 31
0.0
  0
INSERT
  5
E5
330
1F
100
AcDbEntity
  8
0
 62
     9
100
AcDbBlockReference
  2
_OPEN30
 10
29.15000047683716
 20
2.599999899679565
 30
0.0
 41
1.500001393912182
 42
1.499994636989232
 50
90.0
  0
INSERT
  5
E6
330
1F
100
AcDbEntity
  8
0
 62
     9
100
AcDbBlockReference
  2
_OPEN30
 10
29.15000047683716
 20
-6.59999987382278
 30
0.0
 41
1.500001393912182
 42
1.499994636989232
 50
270.0
  0
LINE
  5
E7
330
1F
100
AcDbEntity
  8
0
  6
CONTINUOUS
 62
     9
100
AcDbLine
 10
36.15000047683716
 20
-14.5
 30
0.0
 11
40.58999510324738
 21
-6.617539252800611
 31
0.0
  0
INSERT
  5
E8
330
1F
100
AcDbEntity
  8
0
 62
     9
100
AcDbBlockReference
  2
_OPEN30
 10
40.58999510324738
 20
-6.617539252800611
 30
0.0
 41
1.500001393912182
 42
1.499994636989232
 50
60.60851767768156
  0
LINE
  5
E9
330
1F
100
AcDbEntity
  8
0
  6
CONTINUOUS
 62
     9
100
AcDbLine
 10
-18.15000047683716
 20
15.6400002384186
 30
0.0
 11
-18.15000047683716
 21
-1.249999791383756
 31
0.0
  0
INSERT
  5
EA
330
1F
100
AcDbEntity
  8
0
 62
     9
100
AcDbBlockReference
  2
_OPEN30
 10
-18.15000047683716
 20
-1.249999791383756
 30
0.0
 41
1.500001393912182
 42
1.499994636989232
 50
270.0
  0
LINE
  5
EB
330
1F
100
AcDbEntity
  8
0
  6
CONTINUOUS
 62
     9
100
AcDbLine
 10
-18.15000047683716
 20
-5.249999791383756
 30
0.0
 11
-18.15000047683716
 21
-2.749999791383756
 31
0.0
  0
INSERT
  5
EC
330
1F
100
AcDbEntity
  8
0
 62
     9
100
AcDbBlockReference
  2
_OPEN30
 10
-18.15000047683716
 20
-2.749999791383756
 30
0.0
 41
1.500001393912182
 42
1.499994636989232
 50
90.0
  0
LINE
  5
ED
330
1F
100
AcDbEntity
  8
0
  6
CONTINUOUS
 62
     9
100
AcDbLine
 10
1.398889523162838
 20
10.5000002086162
 30
0.0
 11
-5.850000476837163
 21
10.5000002086162
 31
0.0
  0
INSERT
  5
EE
330
1F
100
AcDbEntity
  8
0
 62
     9
100
AcDbBlockReference
  2
_OPEN30
 10
-5.850000476837163
 20
10.5000002086162
 30
0.0
 41
1.500001393912182
 42
1.499994636989232
 50
180.0
  0
LINE
  5
EF
330
1F
100
AcDbEntity
  8
0
  6
CONTINUOUS
 62
     9
100
AcDbLine
 10
-9.15000047683716
 20
10.5000002086162
 30
0.0
 11
-6.65000047683716
 21
10.5000002086162
 31
0.0
  0
INSERT
  5
F0
330
1F
100
AcDbEntity
  8
0
 62
     9
100
AcDbBlockReference
  2
_OPEN30
 10
-6.65000047683716
 20
10.5000002086162
 30
0.0
 41
1.500001393912182
 42
1.499994636989232
 50
360.0
  0
LINE
  5
F1
330
1F
100
AcDbEntity
  8
0
  6
CONTINUOUS
 62
     9
100
AcDbLine
 10
11.90110952316284
 20
10.5
 30
0.0
 11
19.14999952316284
 21
10.5
 31
0.0
  0
INSERT
  5
F2
330
1F
100
AcDbEntity
  8
0
 62
     9
100
AcDbBlockReference
  2
_OPEN30
 10
19.14999952316284
 20
10.5
 30
0.0
 41
1.500001393912182
 42
1.499994636989232
 50
360.0
  0
LINE
  5
F3
330
1F
100
AcDbEntity
  8
0
  6
CONTINUOUS
 62
     9
100
AcDbLine
 10
22.84999952316285
 20
10.5
 30
0.0
 11
20.34999952316285
 21
10.5
 31
0.0
  0
INSERT
  5
F4
330
1F
100
AcDbEntity
  8
0
 62
     9
100
AcDbBlockReference
  2
_OPEN30
 10
20.34999952316285
 20
10.5
 30
0.0
 41
1.500001393912182
 42
1.499994636989232
 50
180.0
  0
LINE
  5
F5
330
1F
100
AcDbEntity
  8
0
  6
CONTINUOUS
 62
     9
100
AcDbLine
 10
-14.99889047683716
 20
-14.5
 30
0.0
 11
-7.750000476837155
 21
-14.5
 31
0.0
  0
INSERT
  5
F6
330
1F
100
AcDbEntity
  8
0
 62
     9
100
AcDbBlockReference
  2
_OPEN30
 10
-7.750000476837155
 20
-14.5
 30
0.0
 41
1.500001393912182
 42
1.499994636989232
 50
360.0
  0
LINE
  5
F7
330
1F
100
AcDbEntity
  8
0
  6
CONTINUOUS
 62
     9
100
AcDbLine
 10
-3.350000476837164
 20
-14.5
 30
0.0
 11
-5.850000476837164
 21
-14.5
 31
0.0
  0
INSERT
  5
F8
330
1F
100
AcDbEntity
  8
0
 62
     9
100
AcDbBlockReference
  2
_OPEN30
 10
-5.850000476837164
 20
-14.5
 30
0.0
 41
1.500001393912182
 42
1.499994636989232
 50
180.0
  0
LINE
  5
F9
330
1F
100
AcDbEntity
  8
0
  6
CONTINUOUS
 62
     9
100
AcDbLine
 10
-23.15000047683716
 20
10.3600002384186
 30
0.0
 11
-23.15000047683716
 21
-0.4999997913837557
 31
0.0
  0
INSERT
  5
FA
330
1F
100
AcDbEntity
  8
0
 62
     9
100
AcDbBlockReference
  2
_OPEN30
 10
-23.15000047683716
 20
-0.4999997913837557
 30
0.0
 41
1.500001393912182
 42
1.499994636989232
 50
270.0
  0
LINE
  5
FB
330
1F
100
AcDbEntity
  8
0
  6
CONTINUOUS
 62
     9
100
AcDbLine
 10
-23.15000047683716
 20
-5.999999791383756
 30
0.0
 11
-23.15000047683716
 21
-3.499999791383756
 31
0.0
  0
INSERT
  5
FC
330
1F
100
AcDbEntity
  8
0
 62
     9
100
AcDbBlockReference
  2
_OPEN30
 10
-23.15000047683716
 20
-3.499999791383756
 30
0.0
 41
1.500001393912182
 42
1.499994636989232
 50
90.0
  0
TEXT
  5
FD
330
1F
100
AcDbEntity
  8
0
 62
     7
100
AcDbText
 10
-51.23716019245988
 20
-14.0
 30
0.0
 40
2.0
  1
2-Ｍ1.7（Ｐ＝0.35）
 41
0.7466666666666667
  7
FDASTYLE0
 72
     5
 11
-28.83716019245988
 21
-14.0
 31
0.0
100
AcDbText
  0
TEXT
  5
FE
330
1F
100
AcDbEntity
  8
0
 62
     7
100
AcDbText
 10
-18.65000047683716
 20
2.000000238418595
 30
0.0
 40
2.0
  1
φ1.5
 50
90.0
 41
0.7619047619047619
  7
FDASTYLE0
 72
     5
 11
-18.65000047683716
 21
8.400000238418595
 31
0.0
100
AcDbText
  0
TEXT
  5
FF
330
1F
100
AcDbEntity
  8
0
 62
     7
100
AcDbText
 10
-19.95000047683716
 20
8.900000238418595
 30
0.0
 40
1.3
  1
-0.005
 50
90.0
 41
0.7999999999999999
  7
FDASTYLE0
 72
     5
 11
-19.95000047683716
 21
15.1400002384186
 31
0.0
100
AcDbText
  0
TEXT
  5
100
330
1F
100
AcDbEntity
  8
0
 62
     7
100
AcDbText
 10
-18.55000047683716
 20
8.900000238418595
 30
0.0
 40
1.3
  1
-0.010
 50
90.0
 41
0.7999999999999999
  7
FDASTYLE0
 72
     5
 11
-18.55000047683716
 21
15.1400002384186
 31
0.0
100
AcDbText
  0
TEXT
  5
101
330
1F
100
AcDbEntity
  8
0
 62
     7
100
AcDbText
 10
-28.65000047683716
 20
-6.649999791383742
 30
0.0
 40
2.0
  1
φ6
 50
90.0
 41
0.7272727272727279
  7
FDASTYLE0
 72
     5
 11
-28.65000047683716
 21
-3.449999791383739
 31
0.0
100
AcDbText
  0
TEXT
  5
102
330
1F
100
AcDbEntity
  8
0
 62
     7
100
AcDbText
 10
-29.95000047683716
 20
-2.949999791383739
 30
0.0
 40
1.3
  1
 0
 50
90.0
 41
0.8000000000000007
  7
FDASTYLE0
 72
     5
 11
-29.95000047683716
 21
-0.8699997913837372
 31
0.0
100
AcDbText
  0
TEXT
  5
103
330
1F
100
AcDbEntity
  8
0
 62
     7
100
AcDbText
 10
-28.55000047683716
 20
-2.949999791383739
 30
0.0
 40
1.3
  1
-0.03
 50
90.0
 41
0.7999999999999999
  7
FDASTYLE0
 72
     5
 11
-28.55000047683716
 21
2.25000020861626
 31
0.0
100
AcDbText
  0
TEXT
  5
104
330
1F
100
AcDbEntity
  8
0
 62
     7
100
AcDbText
 10
-23.65000047683716
 20
2.000000238418595
 30
0.0
 40
2.0
  1
φ3
 50
90.0
 41
0.7272727272727271
  7
FDASTYLE0
 72
     5
 11
-23.65000047683716
 21
5.200000238418594
 31
0.0
100
AcDbText
  0
TEXT
  5
105
330
1F
100
AcDbEntity
  8
0
 62
     7
100
AcDbText
 10
-3.901110476837163
 20
11.0000002086162
 30
0.0
 40
2.0
  1
0.8
 41
0.8000000000000002
  7
FDASTYLE0
 72
     5
 11
0.898889523162838
 21
11.0000002086162
 31
0.0
100
AcDbText
  0
TEXT
  5
106
330
1F
100
AcDbEntity
  8
0
 62
     7
100
AcDbText
 10
-11.90000047683716
 20
15.0000002086162
 30
0.0
 40
2.0
  1
7.3
 41
0.8000000000000002
  7
FDASTYLE0
 72
     5
 11
-7.100000476837163
 21
15.0000002086162
 31
0.0
100
AcDbText
  0
TEXT
  5
107
330
1F
100
AcDbEntity
  8
0
 62
     7
100
AcDbText
 10
5.04999952733516
 20
15.0000001043081
 30
0.0
 40
2.0
  1
25
 41
0.7999999999999998
  7
FDASTYLE0
 72
     5
 11
8.249999527335159
 21
15.0000001043081
 31
0.0
100
AcDbText
  0
TEXT
  5
108
330
1F
100
AcDbEntity
  8
0
 62
     7
100
AcDbText
 10
-14.49889047683716
 20
-14.0
 30
0.0
 40
2.0
  1
1.9
 41
0.8000000000000002
  7
FDASTYLE0
 72
     5
 11
-9.698890476837155
 21
-14.0
 31
0.0
100
AcDbText
  0
TEXT
  5
109
330
1F
100
AcDbEntity
  8
0
 62
     7
100
AcDbText
 10
-46.25000047683717
 20
11.00000020861622
 30
0.0
 40
2.0
  1
10
 41
0.8000000000000007
  7
FDASTYLE0
 72
     5
 11
-43.05000047683716
 21
11.00000020861622
 31
0.0
100
AcDbText
  0
TEXT
  5
10A
330
1F
100
AcDbEntity
  8
0
 62
     7
100
AcDbText
 10
12.40110952316283
 20
11.0
 30
0.0
 40
2.0
  1
1.2
 41
0.8000000000000002
  7
FDASTYLE0
 72
     5
 11
17.20110952316284
 21
11.0
 31
0.0
100
AcDbText
  0
TEXT
  5
10B
330
1F
100
AcDbEntity
  8
0
 62
     7
100
AcDbText
 10
4.049999523162819
 20
-6.889999980318213
 30
0.0
 40
2.0
  1
φ17
 50
90.0
 41
0.7500000000000001
  7
FDASTYLE0
 72
     5
 11
4.049999523162819
 21
-2.089999980318212
 31
0.0
100
AcDbText
  0
TEXT
  5
10C
330
1F
100
AcDbEntity
  8
0
 62
     7
100
AcDbText
 10
2.749999523162819
 20
-1.589999980318212
 30
0.0
 40
1.3
  1
±0.2
 50
90.0
 41
0.7619047619047619
  7
FDASTYLE0
 72
     5
 11
2.749999523162819
 21
2.570000019681788
 31
0.0
100
AcDbText
  0
TEXT
  5
10D
330
1F
100
AcDbEntity
  8
0
 62
     7
100
AcDbText
 10
-51.23716019245988
 20
-17.0
 30
0.0
 40
2.0
  1
ＤＥＰＴＨ　2ＭＡＸ
 41
0.6779661016949153
  7
FDASTYLE0
 72
     5
 11
-35.23716019245988
 21
-17.0
 31
0.0
100
AcDbText
  0
TEXT
  5
10E
330
1F
100
AcDbEntity
  8
0
 62
     7
100
AcDbText
 10
24.48928529060627
 20
-14.21708227276393
 30
0.0
 40
2.0
  1
（＋）ＭＡＲＫ
 41
0.6666666666666666
  7
FDASTYLE0
 72
     5
 11
35.68928529060627
 21
-14.21708227276393
 31
0.0
100
AcDbText
  0
TEXT
  5
10F
330
1F
100
AcDbEntity
  8
0
 62
     7
100
AcDbText
 10
28.65000047683716
 20
-4.39999998707161
 30
0.0
 40
2.0
  1
9.2
 50
90.0
 41
0.8000000000000007
  7
FDASTYLE0
 72
     5
 11
28.65000047683716
 21
0.4000000129283947
 31
0.0
100
AcDbText
  0
TEXT
  5
110
330
1F
100
AcDbEntity
  8
0
 62
     7
100
AcDbText
 10
-24.95000047683716
 20
5.700000238418594
 30
0.0
 40
1.3
  1
±0.2
 50
90.0
 41
0.7619047619047619
  7
FDASTYLE0
 72
     5
 11
-24.95000047683716
 21
9.860000238418595
 31
0.0
100
AcDbText
  0
INSERT
  5
111
330
1F
100
AcDbEntity
  8
0
  6
CONTINUOUS
100
AcDbBlockReference
  2
DA_IMAGEDIMGROUP_1
 10
0.0
 20
0.0
 30
0.0
  0
VIEWPORT
  5
46
330
1B
100
AcDbEntity
 67
     1
  8
0
100
AcDbViewport
 10
0.0
 20
0.0000001043080999
 30
0.0
 40
324.900002861023
 41
102.0000006258486
 68
     1
 69
     1
1001
ACAD
1000
MVIEW
1002
{
1070
    16
1010
0.0
1020
0.0
1030
0.0
1010
0.0
1020
0.0
1030
1.0
1040
0.0
1040
102.0000006258486
1040
0.0
1040
0.0000001043080999
1040
50.0
1040
0.0
1040
0.0
1070
     0
1070
   100
1070
     0
1070
     1
1070
     0
1070
     0
1070
     0
1070
     0
1040
0.0
1040
0.0
1040
0.0
1040
0.5
1040
0.5
1040
0.0
1040
0.0
1070
     0
1002
{
1002
}
1002
}
  0
ENDSEC
  0
SECTION
  2
OBJECTS
  0
DICTIONARY
  5
C
330
0
100
AcDbDictionary
  3
ACAD_GROUP
350
D
  3
ACAD_LAYOUT
350
1A
  3
ACAD_MLINESTYLE
350
17
  3
ACAD_PLOTSETTINGS
350
19
  3
ACDBHEADERROUNDTRIPXREC
350
112
  0
DICTIONARY
  5
D
102
{ACAD_REACTORS
330
C
102
}
330
C
100
AcDbDictionary
  0
DICTIONARY
  5
1A
102
{ACAD_REACTORS
330
C
102
}
330
C
100
AcDbDictionary
  0
DICTIONARY
  5
17
102
{ACAD_REACTORS
330
C
102
}
330
C
100
AcDbDictionary
  3
STANDARD
350
18
  0
DICTIONARY
  5
19
102
{ACAD_REACTORS
330
C
102
}
330
C
100
AcDbDictionary
  0
DICTIONARY
  5
112
102
{ACAD_REACTORS
330
C
102
}
330
C
100
AcDbDictionary
  3
CEPSNTYPE
350
11B
  3
DIMSTYLEDATA
350
131
  3
FINGERPRINTGUID
350
11C
  3
HYPERLINKBASE
350
115
  3
INSUNITS
350
11A
  3
LAYOUTDICT
350
117
  3
LWETCUNION
350
119
  3
PLOTSETDICT
350
118
  3
PSVPSCALE
350
11E
  3
PUCSBASE
350
121
  3
PUCSORGBACK
350
127
  3
PUCSORGBOTTOM
350
123
  3
PUCSORGFRONT
350
126
  3
PUCSORGLEFT
350
124
  3
PUCSORGRIGHT
350
125
  3
PUCSORGTOP
350
122
  3
PUCSORTHOREF
350
11F
  3
PUCSORTHOVIEW
350
120
  3
STYLESHEET
350
116
  3
TSTACKALIGN
350
113
  3
TSTACKSIZE
350
114
  3
UCSBASE
350
12A
  3
UCSORGBACK
350
130
  3
UCSORGBOTTOM
350
12C
  3
UCSORGFRONT
350
12F
  3
UCSORGLEFT
350
12D
  3
UCSORGRIGHT
350
12E
  3
UCSORGTOP
350
12B
  3
UCSORTHOREF
350
128
  3
UCSORTHOVIEW
350
129
  3
VERSIONGUID
350
11D
  0
MLINESTYLE
  5
18
102
{ACAD_REACTORS
330
17
102
}
330
17
100
AcDbMlineStyle
  2
Standard
 70
     0
  3

 62
   256
 51
90.0
 52
90.0
 71
     2
 49
0.5
 62
   256
  6
BYLAYER
 49
-0.5
 62
   256
  6
BYLAYER
  0
XRECORD
  5
11B
102
{ACAD_REACTORS
330
112
102
}
330
112
100
AcDbXrecord
 90
        0
  0
XRECORD
  5
131
102
{ACAD_REACTORS
330
112
102
}
330
112
100
AcDbXrecord
1000
DSTYLE
1002
{
1070
   171
 70
     2
1070
   143
 40
25.4
1070
   274
 70
     2
1070
    41
 40
1.25
1070
   141
 40
0.09
1070
   271
 70
     4
1070
    43
 40
0.38
1070
    44
 40
0.18
1070
   278
 70
    46
1070
    42
 40
0.0625
1070
   147
 40
0.09
1070
    77
 70
     3
1070
   272
 70
     4
1070
    73
 70
     1
1070
   172
 70
     0
1070
    74
 70
     1
1070
   283
 70
     1
1070
   340
340
11
1070
   140
 40
0.18
1070
   284
 70
     0
1070
    78
 70
     0
1002
}
  0
XRECORD
  5
11C
102
{ACAD_REACTORS
330
112
102
}
330
112
100
AcDbXrecord
  1
{BD9C872E-F2BD-4D34-8E77-ED2DE51AD6BC}
  0
XRECORD
  5
115
102
{ACAD_REACTORS
330
112
102
}
330
112
100
AcDbXrecord
  1

  0
XRECORD
  5
11A
102
{ACAD_REACTORS
330
112
102
}
330
112
100
AcDbXrecord
 90
        4
  0
XRECORD
  5
117
102
{ACAD_REACTORS
330
112
102
}
330
112
100
AcDbXrecord
340
1A
  0
XRECORD
  5
119
102
{ACAD_REACTORS
330
112
102
}
330
112
100
AcDbXrecord
 90
    10781
  0
XRECORD
  5
118
102
{ACAD_REACTORS
330
112
102
}
330
112
100
AcDbXrecord
340
19
  0
XRECORD
  5
11E
102
{ACAD_REACTORS
330
112
102
}
330
112
100
AcDbXrecord
 40
0.0
  0
XRECORD
  5
121
102
{ACAD_REACTORS
330
112
102
}
330
112
100
AcDbXrecord
340
0
  0
XRECORD
  5
127
102
{ACAD_REACTORS
330
112
102
}
330
112
100
AcDbXrecord
 10
0.0
 20
0.0
 30
0.0
  0
XRECORD
  5
123
102
{ACAD_REACTORS
330
112
102
}
330
112
100
AcDbXrecord
 10
0.0
 20
0.0
 30
0.0
  0
XRECORD
  5
126
102
{ACAD_REACTORS
330
112
102
}
330
112
100
AcDbXrecord
 10
0.0
 20
0.0
 30
0.0
  0
XRECORD
  5
124
102
{ACAD_REACTORS
330
112
102
}
330
112
100
AcDbXrecord
 10
0.0
 20
0.0
 30
0.0
  0
XRECORD
  5
125
102
{ACAD_REACTORS
330
112
102
}
330
112
100
AcDbXrecord
 10
0.0
 20
0.0
 30
0.0
  0
XRECORD
  5
122
102
{ACAD_REACTORS
330
112
102
}
330
112
100
AcDbXrecord
 10
0.0
 20
0.0
 30
0.0
  0
XRECORD
  5
11F
102
{ACAD_REACTORS
330
112
102
}
330
112
100
AcDbXrecord
340
0
  0
XRECORD
  5
120
102
{ACAD_REACTORS
330
112
102
}
330
112
100
AcDbXrecord
 70
     0
  0
XRECORD
  5
116
102
{ACAD_REACTORS
330
112
102
}
330
112
100
AcDbXrecord
  1

  0
XRECORD
  5
113
102
{ACAD_REACTORS
330
112
102
}
330
112
100
AcDbXrecord
 90
        1
  0
XRECORD
  5
114
102
{ACAD_REACTORS
330
112
102
}
330
112
100
AcDbXrecord
 90
       70
  0
XRECORD
  5
12A
102
{ACAD_REACTORS
330
112
102
}
330
112
100
AcDbXrecord
340
0
  0
XRECORD
  5
130
102
{ACAD_REACTORS
330
112
102
}
330
112
100
AcDbXrecord
 10
0.0
 20
0.0
 30
0.0
  0
XRECORD
  5
12C
102
{ACAD_REACTORS
330
112
102
}
330
112
100
AcDbXrecord
 10
0.0
 20
0.0
 30
0.0
  0
XRECORD
  5
12F
102
{ACAD_REACTORS
330
112
102
}
330
112
100
AcDbXrecord
 10
0.0
 20
0.0
 30
0.0
  0
XRECORD
  5
12D
102
{ACAD_REACTORS
330
112
102
}
330
112
100
AcDbXrecord
 10
0.0
 20
0.0
 30
0.0
  0
XRECORD
  5
12E
102
{ACAD_REACTORS
330
112
102
}
330
112
100
AcDbXrecord
 10
0.0
 20
0.0
 30
0.0
  0
XRECORD
  5
12B
102
{ACAD_REACTORS
330
112
102
}
330
112
100
AcDbXrecord
 10
0.0
 20
0.0
 30
0.0
  0
XRECORD
  5
128
102
{ACAD_REACTORS
330
112
102
}
330
112
100
AcDbXrecord
340
0
  0
XRECORD
  5
129
102
{ACAD_REACTORS
330
112
102
}
330
112
100
AcDbXrecord
 70
     0
  0
XRECORD
  5
11D
102
{ACAD_REACTORS
330
112
102
}
330
112
100
AcDbXrecord
  1
{FAEB1C32-E019-11D5-929B-00C0DF256EC4}
  0
ENDSEC
  0
EOF
