  0
SECTION
  2
HEADER
  9
$ACADVER
  1
AC1014
  9
$ACADMAINTVER
 70
     9
  9
$DWGCODEPAGE
  3
ANSI_932
  9
$INSBASE
 10
0.0
 20
0.0
 30
0.0
  9
$EXTMIN
 10
-171.4500014305116
 20
-51.00000001292834
 30
0.0
  9
$EXTMAX
 10
171.4500014305116
 20
51.00000002585667
 30
0.0
  9
$LIMMIN
 10
-74.25
 20
-52.5
  9
$LIMMAX
 10
74.25
 20
52.5
  9
$ORTHOMODE
 70
     0
  9
$REGENMODE
 70
     1
  9
$FILLMODE
 70
     1
  9
$QTEXTMODE
 70
     0
  9
$MIRRTEXT
 70
     1
  9
$DRAGMODE
 70
     2
  9
$LTSCALE
 40
0.5
  9
$OSMODE
 70
    37
  9
$ATTMODE
 70
     1
  9
$TEXTSIZE
 40
0.2
  9
$TRACEWID
 40
0.05
  9
$TEXTSTYLE
  7
STANDARD
  9
$CLAYER
  8
0
  9
$CELTYPE
  6
BYLAYER
  9
$CECOLOR
 62
   256
  9
$CELTSCALE
 40
1.0
  9
$DELOBJ
 70
     1
  9
$DISPSILH
 70
     0
  9
$DIMSCALE
 40
1.0
  9
$DIMASZ
 40
1.25
  9
$DIMEXO
 40
0.0625
  9
$DIMDLI
 40
0.38
  9
$DIMRND
 40
0.0
  9
$DIMDLE
 40
0.0
  9
$DIMEXE
 40
0.18
  9
$DIMTP
 40
0.0
  9
$DIMTM
 40
0.0
  9
$DIMTXT
 40
0.18
  9
$DIMCEN
 40
0.09
  9
$DIMTSZ
 40
0.0
  9
$DIMTOL
 70
     0
  9
$DIMLIM
 70
     0
  9
$DIMTIH
 70
     1
  9
$DIMTOH
 70
     1
  9
$DIMSE1
 70
     0
  9
$DIMSE2
 70
     0
  9
$DIMTAD
 70
     3
  9
$DIMZIN
 70
     0
  9
$DIMBLK
  1

  9
$DIMASO
 70
     1
  9
$DIMSHO
 70
     1
  9
$DIMPOST
  1

  9
$DIMAPOST
  1

  9
$DIMALT
 70
     0
  9
$DIMALTD
 70
     2
  9
$DIMALTF
 40
25.4
  9
$DIMLFAC
 40
1.0
  9
$DIMTOFL
 70
     0
  9
$DIMTVP
 40
0.0
  9
$DIMTIX
 70
     0
  9
$DIMSOXD
 70
     0
  9
$DIMSAH
 70
     0
  9
$DIMBLK1
  1

  9
$DIMBLK2
  1

  9
$DIMSTYLE
  2
STANDARD
  9
$DIMCLRD
 70
     0
  9
$DIMCLRE
 70
     0
  9
$DIMCLRT
 70
     0
  9
$DIMTFAC
 40
1.0
  9
$DIMGAP
 40
0.09
  9
$DIMJUST
 70
     0
  9
$DIMSD1
 70
     0
  9
$DIMSD2
 70
     0
  9
$DIMTOLJ
 70
     1
  9
$DIMTZIN
 70
     0
  9
$DIMALTZ
 70
     0
  9
$DIMALTTZ
 70
     0
  9
$DIMFIT
 70
     3
  9
$DIMUPT
 70
     0
  9
$DIMUNIT
 70
     2
  9
$DIMDEC
 70
     4
  9
$DIMTDEC
 70
     4
  9
$DIMALTU
 70
     2
  9
$DIMALTTD
 70
     2
  9
$DIMTXSTY
  7
STANDARD
  9
$DIMAUNIT
 70
     0
  9
$LUNITS
 70
     2
  9
$LUPREC
 70
     4
  9
$SKETCHINC
 40
0.1
  9
$FILLETRAD
 40
0.5
  9
$AUNITS
 70
     0
  9
$AUPREC
 70
     0
  9
$MENU
  1
.
  9
$ELEVATION
 40
0.0
  9
$PELEVATION
 40
0.0
  9
$THICKNESS
 40
0.0
  9
$LIMCHECK
 70
     0
  9
$CHAMFERA
 40
0.5
  9
$CHAMFERB
 40
0.5
  9
$CHAMFERC
 40
1.0
  9
$CHAMFERD
 40
0.0
  9
$SKPOLY
 70
     0
  9
$TDCREATE
 40
2457535.724475694
  9
$TDUPDATE
 40
2457535.724475706
  9
$TDINDWG
 40
0.0000000116
  9
$TDUSRTIMER
 40
0.0000000116
  9
$USRTIMER
 70
     1
  9
$ANGBASE
 50
0.0
  9
$ANGDIR
 70
     0
  9
$PDMODE
 70
     0
  9
$PDSIZE
 40
1.0
  9
$PLINEWID
 40
0.0
  9
$COORDS
 70
     1
  9
$SPLFRAME
 70
     0
  9
$SPLINETYPE
 70
     6
  9
$SPLINESEGS
 70
     8
  9
$ATTDIA
 70
     0
  9
$ATTREQ
 70
     1
  9
$HANDLING
 70
     1
  9
$HANDSEED
  5
138
  9
$SURFTAB1
 70
     6
  9
$SURFTAB2
 70
     6
  9
$SURFTYPE
 70
     6
  9
$SURFU
 70
     6
  9
$SURFV
 70
     6
  9
$UCSNAME
  2

  9
$UCSORG
 10
0.0
 20
0.0
 30
0.0
  9
$UCSXDIR
 10
1.0
 20
0.0
 30
0.0
  9
$UCSYDIR
 10
0.0
 20
1.0
 30
0.0
  9
$PUCSNAME
  2

  9
$PUCSORG
 10
0.0
 20
0.0
 30
0.0
  9
$PUCSXDIR
 10
1.0
 20
0.0
 30
0.0
  9
$PUCSYDIR
 10
0.0
 20
1.0
 30
0.0
  9
$USERI1
 70
     0
  9
$USERI2
 70
     0
  9
$USERI3
 70
     0
  9
$USERI4
 70
     0
  9
$USERI5
 70
     0
  9
$USERR1
 40
0.0
  9
$USERR2
 40
0.0
  9
$USERR3
 40
0.0
  9
$USERR4
 40
0.0
  9
$USERR5
 40
0.0
  9
$WORLDVIEW
 70
     1
  9
$SHADEDGE
 70
     3
  9
$SHADEDIF
 70
    70
  9
$TILEMODE
 70
     1
  9
$MAXACTVP
 70
    64
  9
$PINSBASE
 10
0.0
 20
0.0
 30
0.0
  9
$PLIMCHECK
 70
     0
  9
$PEXTMIN
 10
1.000000000000000E+20
 20
1.000000000000000E+20
 30
1.000000000000000E+20
  9
$PEXTMAX
 10
-1.000000000000000E+20
 20
-1.000000000000000E+20
 30
-1.000000000000000E+20
  9
$PLIMMIN
 10
0.0
 20
0.0
  9
$PLIMMAX
 10
12.0
 20
9.0
  9
$UNITMODE
 70
     0
  9
$VISRETAIN
 70
     0
  9
$PLINEGEN
 70
     1
  9
$PSLTSCALE
 70
     0
  9
$TREEDEPTH
 70
  3020
  9
$PICKSTYLE
 70
     1
  9
$CMLSTYLE
  2
STANDARD
  9
$CMLJUST
 70
     0
  9
$CMLSCALE
 40
1.0
  9
$PROXYGRAPHICS
 70
     0
  9
$MEASUREMENT
 70
     1
  0
ENDSEC
  0
SECTION
  2
CLASSES
  0
CLASS
  1
ACDBDICTIONARYWDFLT
  2
AcDbDictionaryWithDefault
  3
ObjectDBX Classes
 90
        0
280
     0
281
     0
  0
CLASS
  1
XRECORD
  2
AcDbXrecord
  3
AutoCAD 2000
 90
        0
280
     0
281
     0
  0
CLASS
  1
LWPOLYLINE
  2
AcDbPolyline
  3
AutoCAD 2000
 90
        0
280
     0
281
     1
  0
CLASS
  1
HATCH
  2
AcDbHatch
  3
AutoCAD 2000
 90
        0
280
     0
281
     1
  0
CLASS
  1
ACDBPLACEHOLDER
  2
AcDbPlaceHolder
  3
ObjectDBX Classes
 90
        0
280
     0
281
     0
  0
CLASS
  1
LAYOUT
  2
AcDbLayout
  3
ObjectDBX Classes
 90
        0
280
     0
281
     0
  0
ENDSEC
  0
SECTION
  2
TABLES
  0
TABLE
  2
VPORT
  5
8
330
0
100
AcDbSymbolTable
 70
     1
  0
VPORT
  5
29
330
8
100
AcDbSymbolTableRecord
100
AcDbViewportTableRecord
  2
*ACTIVE
 70
     0
 10
0.0
 20
0.0
 11
1.0
 21
1.0
 12
0.0
 22
0.0
 13
0.0
 23
0.0
 14
0.5
 24
0.5
 15
0.5
 25
0.5
 16
0.0
 26
0.0
 36
1.0
 17
-0.0000000000000036
 27
0.0000000064641661
 37
0.0
 40
34.68000001318689
 41
3.361764732653306
 42
50.0
 43
0.0
 44
0.0
 50
0.0
 51
0.0
 71
     0
 72
  1000
 73
     1
 74
     1
 75
     0
 76
     0
 77
     0
 78
     0
  0
ENDTAB
  0
TABLE
  2
LTYPE
  5
5
330
0
100
AcDbSymbolTable
 70
    28
  0
LTYPE
  5
14
330
5
100
AcDbSymbolTableRecord
100
AcDbLinetypeTableRecord
  2
BYBLOCK
 70
     0
  3

 72
    65
 73
     0
 40
0.0
  0
LTYPE
  5
15
330
5
100
AcDbSymbolTableRecord
100
AcDbLinetypeTableRecord
  2
BYLAYER
 70
     0
  3

 72
    65
 73
     0
 40
0.0
  0
LTYPE
  5
16
330
5
100
AcDbSymbolTableRecord
100
AcDbLinetypeTableRecord
  2
CONTINUOUS
 70
     0
  3
Solid line
 72
    65
 73
     0
 40
0.0
  0
LTYPE
  5
2B
330
5
100
AcDbSymbolTableRecord
100
AcDbLinetypeTableRecord
  2
HIDDENX2
 70
     0
  3
CADPAC LINETYPE
 72
    65
 73
     2
 40
5.008431703204053
 49
3.75632377740304
 74
     0
 49
-1.252107925801013
 74
     0
  0
LTYPE
  5
2C
330
5
100
AcDbSymbolTableRecord
100
AcDbLinetypeTableRecord
  2
HIDDEN
 70
     0
  3
CADPAC LINETYPE
 72
    65
 73
     2
 40
3.75632377740304
 49
2.504215851602027
 74
     0
 49
-1.252107925801013
 74
     0
  0
LTYPE
  5
2D
330
5
100
AcDbSymbolTableRecord
100
AcDbLinetypeTableRecord
  2
HIDDEN2
 70
     0
  3
CADPAC LINETYPE
 72
    65
 73
     2
 40
3.130269814502533
 49
1.87816188870152
 74
     0
 49
-1.252107925801013
 74
     0
  0
LTYPE
  5
2E
330
5
100
AcDbSymbolTableRecord
100
AcDbLinetypeTableRecord
  2
DASHED
 70
     0
  3
CADPAC LINETYPE
 72
    65
 73
     2
 40
3.505902192242843
 49
2.504215851602027
 74
     0
 49
-1.001686340640816
 74
     0
  0
LTYPE
  5
2F
330
5
100
AcDbSymbolTableRecord
100
AcDbLinetypeTableRecord
  2
DASHED2
 70
     0
  3
CADPAC LINETYPE
 72
    65
 73
     2
 40
2.253794266441815
 49
1.50252951096121
 74
     0
 49
-0.7512647554806051
 74
     0
  0
LTYPE
  5
30
330
5
100
AcDbSymbolTableRecord
100
AcDbLinetypeTableRecord
  2
DASHEDX2
 70
     0
  3
CADPAC LINETYPE
 72
    65
 73
     2
 40
6.010118043844869
 49
5.008431703204053
 74
     0
 49
-1.001686340640816
 74
     0
  0
LTYPE
  5
31
330
5
100
AcDbSymbolTableRecord
100
AcDbLinetypeTableRecord
  2
DOTX2
 70
     0
  3
CADPAC LINETYPE
 72
    65
 73
     2
 40
2.191188870151777
 49
0.0
 74
     0
 49
-2.191188870151777
 74
     0
  0
LTYPE
  5
32
330
5
100
AcDbSymbolTableRecord
100
AcDbLinetypeTableRecord
  2
DOT
 70
     0
  3
CADPAC LINETYPE
 72
    65
 73
     2
 40
1.752951096121421
 49
0.0
 74
     0
 49
-1.752951096121421
 74
     0
  0
LTYPE
  5
33
330
5
100
AcDbSymbolTableRecord
100
AcDbLinetypeTableRecord
  2
DOT2
 70
     0
  3
CADPAC LINETYPE
 72
    65
 73
     2
 40
1.314713322091066
 49
0.0
 74
     0
 49
-1.314713322091066
 74
     0
  0
LTYPE
  5
34
330
5
100
AcDbSymbolTableRecord
100
AcDbLinetypeTableRecord
  2
CENTERX2
 70
     0
  3
CADPAC LINETYPE
 72
    65
 73
     4
 40
7.51264755480608
 49
3.130269814502533
 74
     0
 49
-1.565134907251267
 74
     0
 49
1.252107925801013
 74
     0
 49
-1.565134907251267
 74
     0
  0
LTYPE
  5
35
330
5
100
AcDbSymbolTableRecord
100
AcDbLinetypeTableRecord
  2
CENTER
 70
     0
  3
CADPAC LINETYPE
 72
    65
 73
     4
 40
5.759696458684661
 49
2.504215851602027
 74
     0
 49
-1.252107925801013
 74
     0
 49
0.7512647554806079
 74
     0
 49
-1.252107925801013
 74
     0
  0
LTYPE
  5
36
330
5
100
AcDbSymbolTableRecord
100
AcDbLinetypeTableRecord
  2
CENTER2
 70
     0
  3
CADPAC LINETYPE
 72
    65
 73
     4
 40
4.006745362563242
 49
1.87816188870152
 74
     0
 49
-0.93908094435076
 74
     0
 49
0.2504215851602027
 74
     0
 49
-0.93908094435076
 74
     0
  0
LTYPE
  5
37
330
5
100
AcDbSymbolTableRecord
100
AcDbLinetypeTableRecord
  2
DASHDOTX2
 70
     0
  3
CADPAC LINETYPE
 72
    65
 73
     4
 40
12.02023608768974
 49
6.010118043844841
 74
     0
 49
-2.003372681281633
 74
     0
 49
2.003372681281633
 74
     0
 49
-2.003372681281633
 74
     0
  0
LTYPE
  5
38
330
5
100
AcDbSymbolTableRecord
100
AcDbLinetypeTableRecord
  2
DASHDOT
 70
     0
  3
CADPAC LINETYPE
 72
    65
 73
     4
 40
6.010118043844898
 49
3.005059021922449
 74
     0
 49
-1.001686340640816
 74
     0
 49
1.001686340640816
 74
     0
 49
-1.001686340640816
 74
     0
  0
LTYPE
  5
39
330
5
100
AcDbSymbolTableRecord
100
AcDbLinetypeTableRecord
  2
DASHDOT2
 70
     0
  3
CADPAC LINETYPE
 72
    65
 73
     4
 40
3.856492411467143
 49
2.253794266441837
 74
     0
 49
-0.7512647554806122
 74
     0
 49
0.1001686340640816
 74
     0
 49
-0.7512647554806122
 74
     0
  0
LTYPE
  5
3A
330
5
100
AcDbSymbolTableRecord
100
AcDbLinetypeTableRecord
  2
DIVIDEX2
 70
     0
  3
CADPAC LINETYPE
 72
    65
 73
     6
 40
16.026981450253
 49
6.010118043844841
 74
     0
 49
-2.003372681281633
 74
     0
 49
2.003372681281633
 74
     0
 49
-2.003372681281633
 74
     0
 49
2.003372681281633
 74
     0
 49
-2.003372681281633
 74
     0
  0
LTYPE
  5
3B
330
5
100
AcDbSymbolTableRecord
100
AcDbLinetypeTableRecord
  2
DIVIDE
 70
     0
  3
CADPAC LINETYPE
 72
    65
 73
     6
 40
8.01349072512653
 49
3.005059021922449
 74
     0
 49
-1.001686340640816
 74
     0
 49
1.001686340640816
 74
     0
 49
-1.001686340640816
 74
     0
 49
1.001686340640816
 74
     0
 49
-1.001686340640816
 74
     0
  0
LTYPE
  5
3C
330
5
100
AcDbSymbolTableRecord
100
AcDbLinetypeTableRecord
  2
DIVIDE2
 70
     0
  3
CADPAC LINETYPE
 72
    65
 73
     6
 40
6.010118043844898
 49
2.253794266441837
 74
     0
 49
-0.7512647554806122
 74
     0
 49
0.7512647554806122
 74
     0
 49
-0.7512647554806122
 74
     0
 49
0.7512647554806122
 74
     0
 49
-0.7512647554806122
 74
     0
  0
LTYPE
  5
3D
330
5
100
AcDbSymbolTableRecord
100
AcDbLinetypeTableRecord
  2
BORDERX2
 70
     0
  3
CADPAC LINETYPE
 72
    65
 73
     6
 40
10.95594435075887
 49
3.130269814502533
 74
     0
 49
-1.565134907251267
 74
     0
 49
3.130269814502533
 74
     0
 49
-1.565134907251267
 74
     0
 49
0.0
 74
     0
 49
-1.565134907251267
 74
     0
  0
LTYPE
  5
3E
330
5
100
AcDbSymbolTableRecord
100
AcDbLinetypeTableRecord
  2
BORDER
 70
     0
  3
CADPAC LINETYPE
 72
    65
 73
     6
 40
8.764755480607093
 49
2.504215851602027
 74
     0
 49
-1.252107925801013
 74
     0
 49
2.504215851602027
 74
     0
 49
-1.252107925801013
 74
     0
 49
0.0
 74
     0
 49
-1.252107925801013
 74
     0
  0
LTYPE
  5
3F
330
5
100
AcDbSymbolTableRecord
100
AcDbLinetypeTableRecord
  2
BORDER2
 70
     0
  3
CADPAC LINETYPE
 72
    65
 73
     6
 40
6.510961214165249
 49
2.003372681281633
 74
     0
 49
-1.252107925800999
 74
     0
 49
0.7512647554806051
 74
     0
 49
-1.252107925800999
 74
     0
 49
0.0
 74
     0
 49
-1.252107925801013
 74
     0
  0
LTYPE
  5
40
330
5
100
AcDbSymbolTableRecord
100
AcDbLinetypeTableRecord
  2
PHANTOMX2
 70
     0
  3
CADPAC LINETYPE
 72
    65
 73
     6
 40
9.3908094435076
 49
3.130269814502533
 74
     0
 49
-1.252107925801013
 74
     0
 49
1.252107925801013
 74
     0
 49
-1.252107925801013
 74
     0
 49
1.252107925801013
 74
     0
 49
-1.252107925801013
 74
     0
  0
LTYPE
  5
41
330
5
100
AcDbSymbolTableRecord
100
AcDbLinetypeTableRecord
  2
PHANTOM
 70
     0
  3
CADPAC LINETYPE
 72
    65
 73
     6
 40
7.763069139966282
 49
2.504215851602027
 74
     0
 49
-1.252107925801013
 74
     0
 49
0.7512647554806079
 74
     0
 49
-1.252107925801013
 74
     0
 49
0.7512647554806079
 74
     0
 49
-1.252107925801013
 74
     0
  0
LTYPE
  5
42
330
5
100
AcDbSymbolTableRecord
100
AcDbLinetypeTableRecord
  2
PHANTOM2
 70
     0
  3
CADPAC LINETYPE
 72
    65
 73
     6
 40
6.636172006745371
 49
1.87816188870152
 74
     0
 49
-1.252107925801013
 74
     0
 49
0.5008431703204054
 74
     0
 49
-1.252107925801013
 74
     0
 49
0.5008431703204054
 74
     0
 49
-1.252107925801013
 74
     0
  0
LTYPE
  5
43
330
5
100
AcDbSymbolTableRecord
100
AcDbLinetypeTableRecord
  2
ACAD_ISO06W100
 70
     0
  3
CADPAC LINETYPE
 72
    65
 73
     8
 40
13.27234401349065
 49
6.010118043844841
 74
     0
 49
-1.252107925800999
 74
     0
 49
0.7512647554806051
 74
     0
 49
-1.252107925800999
 74
     0
 49
0.7512647554806051
 74
     0
 49
-1.252107925800999
 74
     0
 49
0.7512647554806051
 74
     0
 49
-1.252107925800999
 74
     0
  0
LTYPE
  5
44
330
5
100
AcDbSymbolTableRecord
100
AcDbLinetypeTableRecord
  2
ACAD_ISO13W100
 70
     0
  3
CADPAC LINETYPE
 72
    65
 73
     8
 40
10.01686340640811
 49
2.504215851602027
 74
     0
 49
-1.252107925801013
 74
     0
 49
2.504215851602027
 74
     0
 49
-1.252107925801013
 74
     0
 49
0.0
 74
     0
 49
-1.252107925801013
 74
     0
 49
0.0
 74
     0
 49
-1.252107925801013
 74
     0
  0
LTYPE
  5
45
330
5
100
AcDbSymbolTableRecord
100
AcDbLinetypeTableRecord
  2
ACAD_ISO14W100
 70
     0
  3
CADPAC LINETYPE
 72
    65
 73
     8
 40
7.51264755480608
 49
2.504215851602027
 74
     0
 49
-1.252107925801013
 74
     0
 49
0.0
 74
     0
 49
-1.252107925801013
 74
     0
 49
0.0
 74
     0
 49
-1.252107925801013
 74
     0
 49
0.0
 74
     0
 49
-1.252107925801013
 74
     0
  0
ENDTAB
  0
TABLE
  2
LAYER
  5
2
330
0
100
AcDbSymbolTable
 70
     1
  0
LAYER
  5
10
330
2
100
AcDbSymbolTableRecord
100
AcDbLayerTableRecord
  2
0
 70
     0
 62
     7
  6
CONTINUOUS
  0
ENDTAB
  0
TABLE
  2
STYLE
  5
3
330
0
100
AcDbSymbolTable
 70
     2
  0
STYLE
  5
11
330
3
100
AcDbSymbolTableRecord
100
AcDbTextStyleTableRecord
  2
STANDARD
 70
     0
 40
0.0
 41
1.0
 50
0.0
 71
     0
 42
0.2
  3
txt
  4

  0
STYLE
  5
58
330
3
100
AcDbSymbolTableRecord
100
AcDbTextStyleTableRecord
  2
FDASTYLE0
 70
     0
 40
2.0
 41
0.8000000000000007
 50
0.0
 71
     0
 42
0.2
  3
txt.shx
  4
bigfont
  0
ENDTAB
  0
TABLE
  2
VIEW
  5
6
330
0
100
AcDbSymbolTable
 70
     0
  0
ENDTAB
  0
TABLE
  2
UCS
  5
7
330
0
100
AcDbSymbolTable
 70
     0
  0
ENDTAB
  0
TABLE
  2
APPID
  5
9
330
0
100
AcDbSymbolTable
 70
     2
  0
APPID
  5
12
330
9
100
AcDbSymbolTableRecord
100
AcDbRegAppTableRecord
  2
ACAD
 70
     0
  0
APPID
  5
2A
330
9
100
AcDbSymbolTableRecord
100
AcDbRegAppTableRecord
  2
DAFUSIONOUT
 70
     0
  0
ENDTAB
  0
TABLE
  2
DIMSTYLE
  5
A
330
0
100
AcDbSymbolTable
 70
     1
  0
DIMSTYLE
105
27
330
A
100
AcDbSymbolTableRecord
100
AcDbDimStyleTableRecord
  2
STANDARD
 70
     0
  3

  4

  5

  6

  7

 40
1.0
 41
0.18
 42
0.0625
 43
0.38
 44
0.18
 45
0.0
 46
0.0
 47
0.0
 48
0.0
140
0.18
141
0.09
142
0.0
143
25.4
144
1.0
145
0.0
146
1.0
147
0.09
 71
     0
 72
     0
 73
     1
 74
     1
 75
     0
 76
     0
 77
     0
 78
     0
170
     0
171
     2
172
     0
173
     0
174
     0
175
     0
176
     0
177
     0
178
     0
270
     2
271
     4
272
     4
273
     2
274
     2
340
11
275
     0
280
     0
281
     0
282
     0
283
     1
284
     0
285
     0
286
     0
287
     3
288
     0
  0
ENDTAB
  0
TABLE
  2
BLOCK_RECORD
  5
1
330
0
100
AcDbSymbolTable
 70
     4
  0
BLOCK_RECORD
  5
1F
330
1
100
AcDbSymbolTableRecord
100
AcDbBlockTableRecord
  2
*MODEL_SPACE
  0
BLOCK_RECORD
  5
1B
330
1
100
AcDbSymbolTableRecord
100
AcDbBlockTableRecord
  2
*PAPER_SPACE
  0
BLOCK_RECORD
  5
47
330
1
100
AcDbSymbolTableRecord
100
AcDbBlockTableRecord
  2
DA_IMAGEDIMGROUP_1
  0
BLOCK_RECORD
  5
4A
330
1
100
AcDbSymbolTableRecord
100
AcDbBlockTableRecord
  2
DA_IMAGEDIMGROUP_2
  0
BLOCK_RECORD
  5
50
330
1
100
AcDbSymbolTableRecord
100
AcDbBlockTableRecord
  2
_OPEN30
  0
ENDTAB
  0
ENDSEC
  0
SECTION
  2
BLOCKS
  0
BLOCK
  5
20
330
1F
100
AcDbEntity
  8
0
100
AcDbBlockBegin
  2
*MODEL_SPACE
 70
     0
 71
     0
 10
0.0
 20
0.0
 30
0.0
  3
*MODEL_SPACE
  1

  0
ENDBLK
  5
21
330
1F
100
AcDbEntity
  8
0
100
AcDbBlockEnd
  0
BLOCK
  5
1C
330
1B
100
AcDbEntity
 67
     1
  8
0
100
AcDbBlockBegin
  2
*PAPER_SPACE
 70
     0
 71
     0
 10
0.0
 20
0.0
 30
0.0
  3
*PAPER_SPACE
  1

  0
ENDBLK
  5
1D
330
1B
100
AcDbEntity
 67
     1
  8
0
100
AcDbBlockEnd
  0
BLOCK
  5
48
330
47
100
AcDbEntity
  8
0
100
AcDbBlockBegin
  2
DA_IMAGEDIMGROUP_1
 70
     0
 71
     0
 10
0.0
 20
0.0
 30
0.0
  3
DA_IMAGEDIMGROUP_1
  1

  0
LINE
  5
4D
330
47
100
AcDbEntity
  8
0
  6
CONTINUOUS
 62
     9
100
AcDbLine
 10
31.15000047683713
 20
3.330127227538515
 30
0.0
 11
31.15000047683713
 21
15.0
 31
0.0
  0
LINE
  5
4E
330
47
100
AcDbEntity
  8
0
  6
CONTINUOUS
 62
     9
100
AcDbLine
 10
26.14999952316281
 20
5.563235992054558
 30
0.0
 11
26.14999952316281
 21
15.0
 31
0.0
  0
LINE
  5
4F
330
47
100
AcDbEntity
  8
0
  6
CONTINUOUS
 62
     9
100
AcDbLine
 10
26.14999952316281
 20
14.5
 30
0.0
 11
31.15000047683713
 21
14.5
 31
0.0
  0
INSERT
  5
56
330
47
100
AcDbEntity
  8
0
 62
     9
100
AcDbBlockReference
  2
_OPEN30
 10
26.14999952316281
 20
14.5
 30
0.0
 41
1.500001393912182
 42
1.499994636989232
 50
180.0
  0
INSERT
  5
57
330
47
100
AcDbEntity
  8
0
 62
     9
100
AcDbBlockReference
  2
_OPEN30
 10
31.15000047683713
 20
14.5
 30
0.0
 41
1.500001393912182
 42
1.499994636989232
 50
360.0
  0
TEXT
  5
59
330
47
100
AcDbEntity
  8
0
 62
     7
100
AcDbText
 10
27.84999999999997
 20
15.0
 30
0.0
 40
2.0
  1
5
 41
0.8000000000000007
  7
FDASTYLE0
 72
     5
 11
29.44999999999997
 21
15.0
 31
0.0
100
AcDbText
  0
ENDBLK
  5
49
330
47
100
AcDbEntity
  8
0
100
AcDbBlockEnd
  0
BLOCK
  5
4B
330
4A
100
AcDbEntity
  8
0
100
AcDbBlockBegin
  2
DA_IMAGEDIMGROUP_2
 70
     0
 71
     0
 10
0.0
 20
0.0
 30
0.0
  3
DA_IMAGEDIMGROUP_2
  1

  0
LINE
  5
5A
330
4A
100
AcDbEntity
  8
0
  6
CONTINUOUS
 62
     9
100
AcDbLine
 10
50.20962350065467
 20
2.105889864924691
 30
0.0
 11
42.17477837957285
 21
11.68144540391194
 31
0.0
  0
LINE
  5
5B
330
4A
100
AcDbEntity
  8
0
  6
CONTINUOUS
 62
     9
100
AcDbLine
 10
43.16201462396006
 20
-3.807756144191455
 30
0.0
 11
35.12716950287827
 21
5.767799394795754
 31
0.0
  0
LINE
  5
5C
330
4A
100
AcDbEntity
  8
0
  6
CONTINUOUS
 62
     9
100
AcDbLine
 10
35.44856330772155
 20
5.384777173236266
 30
0.0
 11
42.49617218441613
 21
11.29842318235245
 31
0.0
  0
INSERT
  5
5D
330
4A
100
AcDbEntity
  8
0
 62
     9
100
AcDbBlockReference
  2
_OPEN30
 10
35.44856330772155
 20
5.384777173236266
 30
0.0
 41
1.500001393912182
 42
1.499994636989232
 50
220.0000000000002
  0
INSERT
  5
5E
330
4A
100
AcDbEntity
  8
0
 62
     9
100
AcDbBlockReference
  2
_OPEN30
 10
42.49617218441613
 20
11.29842318235245
 30
0.0
 41
1.500001393912182
 42
1.499994636989232
 50
40.00000000000018
  0
TEXT
  5
5F
330
4A
100
AcDbEntity
  8
0
 62
     7
100
AcDbText
 10
36.81246727774003
 20
7.181932136106146
 30
0.0
 40
2.0
  1
9.2
 50
40.00000000000021
 41
0.7999999999999991
  7
FDASTYLE0
 72
     5
 11
40.48948060471111
 21
10.26731266260155
 31
0.0
100
AcDbText
  0
ENDBLK
  5
4C
330
4A
100
AcDbEntity
  8
0
100
AcDbBlockEnd
  0
BLOCK
  5
51
330
50
100
AcDbEntity
  8
0
100
AcDbBlockBegin
  2
_OPEN30
 70
     0
 71
     0
 10
0.0
 20
0.0
 30
0.0
  3
_OPEN30
  1

  0
LINE
  5
53
330
50
100
AcDbEntity
  8
0
  6
BYBLOCK
 62
     0
100
AcDbLine
 10
-1.0
 20
0.267949
 30
0.0
 11
0.0
 21
0.0
 31
0.0
  0
LINE
  5
54
330
50
100
AcDbEntity
  8
0
  6
BYBLOCK
 62
     0
100
AcDbLine
 10
0.0
 20
0.0
 30
0.0
 11
-1.0
 21
-0.267949
 31
0.0
  0
LINE
  5
55
330
50
100
AcDbEntity
  8
0
  6
BYBLOCK
 62
     0
100
AcDbLine
 10
0.0
 20
0.0
 30
0.0
 11
-1.0
 21
0.0
 31
0.0
  0
ENDBLK
  5
52
330
50
100
AcDbEntity
  8
0
100
AcDbBlockEnd
  0
ENDSEC
  0
SECTION
  2
ENTITIES
  0
LINE
  5
60
330
1F
100
AcDbEntity
  8
0
  6
CONTINUOUS
 62
     3
100
AcDbLine
 10
-8.850000476837177
 20
-4.999999821186076
 30
0.0
 11
-9.650000476837189
 21
-4.999999821186076
 31
0.0
  0
LINE
  5
61
330
1F
100
AcDbEntity
  8
0
  6
CONTINUOUS
 62
     3
100
AcDbLine
 10
-8.850000476837177
 20
1.000000238418568
 30
0.0
 11
-9.650000476837189
 21
1.000000238418597
 31
0.0
  0
CIRCLE
  5
62
330
1F
100
AcDbEntity
  8
0
  6
CONTINUOUS
 62
     3
100
AcDbCircle
 10
-47.65000047683719
 20
-1.999999791383782
 30
0.0
 40
8.0
  0
CIRCLE
  5
63
330
1F
100
AcDbEntity
  8
0
  6
CONTINUOUS
 62
     3
100
AcDbCircle
 10
-47.65000047683719
 20
-1.999999791383782
 30
0.0
 40
3.0
  0
CIRCLE
  5
64
330
1F
100
AcDbEntity
  8
0
  6
CONTINUOUS
 62
     3
100
AcDbCircle
 10
-52.65000047683724
 20
-1.999999791383782
 30
0.0
 40
0.6
  0
CIRCLE
  5
65
330
1F
100
AcDbEntity
  8
0
  6
CONTINUOUS
 62
     3
100
AcDbCircle
 10
-42.65000047683714
 20
-1.999999791383782
 30
0.0
 40
0.6
  0
LINE
  5
66
330
1F
100
AcDbEntity
  8
0
  6
CONTINUOUS
 62
     3
100
AcDbLine
 10
21.94999952316277
 20
6.500000000000018
 30
0.0
 11
24.94999952316278
 21
5.971019057874617
 31
0.0
  0
LINE
  5
67
330
1F
100
AcDbEntity
  8
0
  6
CONTINUOUS
 62
     3
100
AcDbLine
 10
21.94999952316277
 20
-10.49999999999998
 30
0.0
 11
24.94999952316278
 21
-9.971019057874582
 31
0.0
  0
LINE
  5
68
330
1F
100
AcDbEntity
  8
0
  6
CONTINUOUS
 62
     3
100
AcDbLine
 10
-8.650000476837189
 20
6.499999999999989
 30
0.0
 11
21.94999952316277
 21
6.500000000000018
 31
0.0
  0
LINE
  5
69
330
1F
100
AcDbEntity
  8
0
  6
CONTINUOUS
 62
     3
100
AcDbLine
 10
21.94999952316277
 20
-10.49999999999998
 30
0.0
 11
-8.650000476837192
 21
-10.50000000000001
 31
0.0
  0
LINE
  5
6A
330
1F
100
AcDbEntity
  8
0
  6
CONTINUOUS
 62
     3
100
AcDbLine
 10
21.94999952316277
 20
6.500000000000018
 30
0.0
 11
24.94999952316278
 21
5.971019057874617
 31
0.0
  0
LINE
  5
6B
330
1F
100
AcDbEntity
  8
0
  6
CONTINUOUS
 62
     3
100
AcDbLine
 10
21.94999952316277
 20
-10.49999999999998
 30
0.0
 11
24.94999952316278
 21
-9.971019057874582
 31
0.0
  0
LINE
  5
6C
330
1F
100
AcDbEntity
  8
0
  6
CONTINUOUS
 62
     3
100
AcDbLine
 10
-8.850000476837192
 20
-10.29999999999999
 30
0.0
 11
-8.850000476837192
 21
6.300000000000001
 31
0.0
  0
LINE
  5
6D
330
1F
100
AcDbEntity
  8
0
  6
CONTINUOUS
 62
     3
100
AcDbLine
 10
24.94999952316278
 20
5.971019057874617
 30
0.0
 11
24.94999952316278
 21
-9.971019057874582
 31
0.0
  0
LINE
  5
6E
330
1F
100
AcDbEntity
  8
0
  6
CONTINUOUS
 62
     3
100
AcDbLine
 10
21.94999952316277
 20
6.500000000000018
 30
0.0
 11
21.94999952316277
 21
-10.49999999999998
 31
0.0
  0
LINE
  5
6F
330
1F
100
AcDbEntity
  8
0
  6
CONTINUOUS
 62
     3
100
AcDbLine
 10
-8.850000476837192
 20
6.300000000000001
 30
0.0
 11
-8.650000476837189
 21
6.499999999999989
 31
0.0
  0
LINE
  5
70
330
1F
100
AcDbEntity
  8
0
  6
CONTINUOUS
 62
     3
100
AcDbLine
 10
-8.850000476837192
 20
-10.29999999999999
 30
0.0
 11
-8.650000476837192
 21
-10.50000000000001
 31
0.0
  0
LINE
  5
71
330
1F
100
AcDbEntity
  8
0
  6
CONTINUOUS
 62
     3
100
AcDbLine
 10
-9.650000476837189
 20
-4.999999821186076
 30
0.0
 11
-9.650000476837189
 21
-1.999999791383754
 31
0.0
  0
LINE
  5
72
330
1F
100
AcDbEntity
  8
0
  6
CONTINUOUS
 62
     3
100
AcDbLine
 10
-9.650000476837189
 20
1.000000238418597
 30
0.0
 11
-9.650000476837189
 21
-1.999999791383754
 31
0.0
  0
LINE
  5
73
330
1F
100
AcDbEntity
  8
0
  6
CONTINUOUS
 62
     3
100
AcDbLine
 10
-9.750000476837183
 20
-0.4999997913837539
 30
0.0
 11
-9.750000476837183
 21
-3.499999791383754
 31
0.0
  0
LINE
  5
74
330
1F
100
AcDbEntity
  8
0
  6
CONTINUOUS
 62
     3
100
AcDbLine
 10
-10.75000047683718
 20
-0.4999997913837539
 30
0.0
 11
-10.75000047683718
 21
-3.499999791383754
 31
0.0
  0
LINE
  5
75
330
1F
100
AcDbEntity
  8
0
  6
CONTINUOUS
 62
     3
100
AcDbLine
 10
-15.9500004768372
 20
-1.249999791383754
 30
0.0
 11
-10.75000047683718
 21
-1.249999791383754
 31
0.0
  0
LINE
  5
76
330
1F
100
AcDbEntity
  8
0
  6
CONTINUOUS
 62
     3
100
AcDbLine
 10
-15.9500004768372
 20
-2.749999791383754
 30
0.0
 11
-10.75000047683718
 21
-2.749999791383754
 31
0.0
  0
LINE
  5
77
330
1F
100
AcDbEntity
  8
0
  6
CONTINUOUS
 62
     3
100
AcDbLine
 10
-16.15000047683719
 20
-1.449999791383743
 30
0.0
 11
-16.15000047683719
 21
-2.549999791383765
 31
0.0
  0
ARC
  5
78
330
1F
100
AcDbEntity
  8
0
  6
CONTINUOUS
 62
     3
100
AcDbCircle
 10
-15.9500004768372
 20
-1.449999791383743
 30
0.0
 40
0.2
100
AcDbArc
 50
90.0
 51
180.0
  0
ARC
  5
79
330
1F
100
AcDbEntity
  8
0
  6
CONTINUOUS
 62
     3
100
AcDbCircle
 10
-15.9500004768372
 20
-2.549999791383765
 30
0.0
 40
0.2
100
AcDbArc
 50
180.0
 51
270.0
  0
LINE
  5
7A
330
1F
100
AcDbEntity
  8
0
  6
CONTINUOUS
 62
     3
100
AcDbLine
 10
-10.75000047683718
 20
-0.4999997913837539
 30
0.0
 11
-9.650000476837189
 21
-0.4999997913837539
 31
0.0
  0
LINE
  5
7B
330
1F
100
AcDbEntity
  8
0
  6
CONTINUOUS
 62
     3
100
AcDbLine
 10
-10.75000047683718
 20
-3.499999791383754
 30
0.0
 11
-9.650000476837189
 21
-3.499999791383754
 31
0.0
  0
CIRCLE
  5
7C
330
1F
100
AcDbEntity
  8
0
  6
CONTINUOUS
 62
     3
100
AcDbCircle
 10
-47.65000047683719
 20
-1.999999791383782
 30
0.0
 40
1.5
  0
CIRCLE
  5
7D
330
1F
100
AcDbEntity
  8
0
  6
CONTINUOUS
 62
     3
100
AcDbCircle
 10
-47.65000047683719
 20
-1.999999791383782
 30
0.0
 40
0.75
  0
CIRCLE
  5
7E
330
1F
100
AcDbEntity
  8
0
  6
CONTINUOUS
 62
     3
100
AcDbCircle
 10
-47.65000047683719
 20
-1.999999791383782
 30
0.0
 40
8.5
  0
LINE
  5
7F
330
1F
100
AcDbEntity
  8
0
  6
CONTINUOUS
 62
     3
100
AcDbLine
 10
24.94999952316282
 20
-9.499999868869775
 30
0.0
 11
26.14999952316282
 21
-9.063235587750352
 31
0.0
  0
LINE
  5
80
330
1F
100
AcDbEntity
  8
0
  6
CONTINUOUS
 62
     3
100
AcDbLine
 10
26.14999952316282
 20
-9.063235587750352
 30
0.0
 11
26.14999952316281
 21
5.063236004982887
 31
0.0
  0
LINE
  5
81
330
1F
100
AcDbEntity
  8
0
  6
CONTINUOUS
 62
     3
100
AcDbLine
 10
24.94999952316282
 20
5.50000028610231
 30
0.0
 11
26.14999952316281
 21
5.063236004982887
 31
0.0
  0
LINE
  5
82
330
1F
100
AcDbEntity
  8
0
  6
CONTINUOUS
 62
     3
100
AcDbLine
 10
27.34999952316283
 20
2.830127227538515
 30
0.0
 11
31.15000047683713
 21
2.830127227538515
 31
0.0
  0
LINE
  5
83
330
1F
100
AcDbEntity
  8
0
  6
CONTINUOUS
 62
     3
100
AcDbLine
 10
27.34999952316283
 20
1.483717066024742
 30
0.0
 11
31.14999952316281
 21
1.483717066024742
 31
0.0
  0
LINE
  5
84
330
1F
100
AcDbEntity
  8
0
  6
CONTINUOUS
 62
     3
100
AcDbLine
 10
27.34999952316283
 20
-5.483716648792107
 30
0.0
 11
31.14999952316282
 21
-5.483716648792107
 31
0.0
  0
LINE
  5
85
330
1F
100
AcDbEntity
  8
0
  6
CONTINUOUS
 62
     3
100
AcDbLine
 10
27.34999952316283
 20
-6.830126810305853
 30
0.0
 11
31.15000047683713
 21
-6.830126810305853
 31
0.0
  0
LINE
  5
86
330
1F
100
AcDbEntity
  8
0
  6
CONTINUOUS
 62
     3
100
AcDbLine
 10
27.34999952316283
 20
2.483717066024742
 30
0.0
 11
31.14999952316281
 21
2.483717066024742
 31
0.0
  0
LINE
  5
87
330
1F
100
AcDbEntity
  8
0
  6
CONTINUOUS
 62
     3
100
AcDbLine
 10
27.34999952316283
 20
-5.830126810305881
 30
0.0
 11
31.15000047683713
 21
-5.830126810305881
 31
0.0
  0
LINE
  5
88
330
1F
100
AcDbEntity
  8
0
  6
CONTINUOUS
 62
     3
100
AcDbLine
 10
31.14999952316281
 20
2.830127227538515
 30
0.0
 11
31.14999952316282
 21
1.483717066024742
 31
0.0
  0
LINE
  5
89
330
1F
100
AcDbEntity
  8
0
  6
CONTINUOUS
 62
     3
100
AcDbLine
 10
31.14999952316282
 20
-5.483716648792107
 30
0.0
 11
31.14999952316282
 21
-6.830126810305853
 31
0.0
  0
ARC
  5
8A
330
1F
100
AcDbEntity
  8
0
  6
CONTINUOUS
 62
     3
100
AcDbCircle
 10
26.74999952316283
 20
4.100000208616269
 30
0.0
 40
0.6
100
AcDbArc
 50
0.0000000000000472
 51
90.00000000000006
  0
LINE
  5
8B
330
1F
100
AcDbEntity
  8
0
  6
CONTINUOUS
 62
     3
100
AcDbLine
 10
26.14999952316282
 20
4.700000208616263
 30
0.0
 11
26.74999952316283
 21
4.700000208616263
 31
0.0
  0
LINE
  5
8C
330
1F
100
AcDbEntity
  8
0
  6
CONTINUOUS
 62
     3
100
AcDbLine
 10
27.34999952316283
 20
4.100000208616269
 30
0.0
 11
27.34999952316284
 21
-8.099999791383748
 31
0.0
  0
ARC
  5
8D
330
1F
100
AcDbEntity
  8
0
  6
CONTINUOUS
 62
     3
100
AcDbCircle
 10
26.74999952316283
 20
-8.099999791383748
 30
0.0
 40
0.6
100
AcDbArc
 50
270.0
 51
360.0
  0
LINE
  5
8E
330
1F
100
AcDbEntity
  8
0
  6
CONTINUOUS
 62
     3
100
AcDbLine
 10
26.14999952316284
 20
-8.699999791383743
 30
0.0
 11
26.74999952316283
 21
-8.699999791383743
 31
0.0
  0
LINE
  5
8F
330
1F
100
AcDbEntity
  8
0
  6
CONTINUOUS
 62
     3
100
AcDbLine
 10
26.64999952316282
 20
0.446451219842249
 30
0.0
 11
26.14999952316282
 21
0.446451219842249
 31
0.0
  0
LINE
  5
90
330
1F
100
AcDbEntity
  8
0
  6
CONTINUOUS
 62
     3
100
AcDbLine
 10
26.64999952316282
 20
2.178502027411117
 30
0.0
 11
26.64999952316282
 21
0.446451219842249
 31
0.0
  0
LINE
  5
91
330
1F
100
AcDbEntity
  8
0
  6
CONTINUOUS
 62
     3
100
AcDbLine
 10
26.64999952316282
 20
2.178502027411117
 30
0.0
 11
26.14999952316282
 21
2.178502027411117
 31
0.0
  0
ELLIPSE
  5
92
330
1F
100
AcDbEntity
  8
0
  6
CONTINUOUS
 62
     3
100
AcDbEllipse
 10
30.14789695314903
 20
-6.334385850376361
 30
0.0
 11
0.5
 21
0.0
 31
0.0
210
0.0
220
0.0
230
1.0
 40
0.5
 41
0.0
 42
6.283185307179586
  0
ELLIPSE
  5
93
330
1F
100
AcDbEntity
  8
0
  6
CONTINUOUS
 62
     3
100
AcDbEllipse
 10
30.14336211818687
 20
1.982533115958479
 30
0.0
 11
0.5
 21
0.0
 31
0.0
210
0.0
220
0.0
230
1.0
 40
0.5
 41
0.0
 42
6.283185307179586
  0
LINE
  5
94
330
1F
100
AcDbEntity
  8
0
  6
CONTINUOUS
 62
     3
100
AcDbLine
 10
51.81659252487101
 20
0.1907787571272621
 30
0.0
 11
50.53101730549793
 21
1.722867643365202
 31
0.0
  0
LINE
  5
95
330
1F
100
AcDbEntity
  8
0
  6
CONTINUOUS
 62
     3
100
AcDbLine
 10
52.12301030211859
 20
0.4478938010018787
 30
0.0
 11
51.81659252487101
 21
0.1907787571272621
 31
0.0
  0
LINE
  5
96
330
1F
100
AcDbEntity
  8
0
  6
CONTINUOUS
 62
     3
100
AcDbLine
 10
50.83743508274552
 20
1.979982687239833
 30
0.0
 11
50.53101730549793
 21
1.722867643365202
 31
0.0
  0
LINE
  5
97
330
1F
100
AcDbEntity
  8
0
  6
CONTINUOUS
 62
     3
100
AcDbLine
 10
43.48340842880334
 20
-4.190778365750948
 30
0.0
 11
44.7689836481764
 21
-5.72286725198888
 31
0.0
  0
LINE
  5
98
330
1F
100
AcDbEntity
  8
0
  6
CONTINUOUS
 62
     3
100
AcDbLine
 10
43.17699065155574
 20
-4.447893409625557
 30
0.0
 11
43.48340842880334
 21
-4.190778365750948
 31
0.0
  0
LINE
  5
99
330
1F
100
AcDbEntity
  8
0
  6
CONTINUOUS
 62
     3
100
AcDbLine
 10
44.46256587092881
 20
-5.979982295863501
 30
0.0
 11
44.7689836481764
 21
-5.722867251988895
 31
0.0
  0
LINE
  5
9A
330
1F
100
AcDbEntity
  8
0
  6
CONTINUOUS
 62
     3
100
AcDbLine
 10
52.12301030211859
 20
0.4478938010018787
 30
0.0
 11
50.83743508274552
 21
1.979982687239833
 31
0.0
  0
LINE
  5
9B
330
1F
100
AcDbEntity
  8
0
  6
CONTINUOUS
 62
     3
100
AcDbLine
 10
43.17699065155574
 20
-4.447893409625557
 30
0.0
 11
44.46256587092881
 21
-5.979982295863501
 31
0.0
  0
LINE
  5
9C
330
1F
100
AcDbEntity
  8
0
  6
CONTINUOUS
 62
     3
100
AcDbLine
 10
42.36688027881649
 20
-1.537786678940162
 30
0.0
 11
41.74032635288047
 21
-0.7910887867519172
 31
0.0
  0
LINE
  5
9D
330
1F
100
AcDbEntity
  8
0
  6
CONTINUOUS
 62
     3
100
AcDbLine
 10
41.62018238662824
 20
-2.164340604876173
 30
0.0
 11
42.36688027881649
 21
-1.537786678940162
 31
0.0
  0
LINE
  5
9E
330
1F
100
AcDbEntity
  8
0
  6
CONTINUOUS
 62
     3
100
AcDbLine
 10
42.749902500376
 20
-1.216392874096894
 30
0.0
 11
43.49660039256424
 21
-0.5898389481608781
 31
0.0
  0
LINE
  5
9F
330
1F
100
AcDbEntity
  8
0
  6
CONTINUOUS
 62
     3
100
AcDbLine
 10
43.81799419740752
 20
-0.9728611697203675
 30
0.0
 11
43.07129630521926
 21
-1.599415095656376
 31
0.0
  0
LINE
  5
A0
330
1F
100
AcDbEntity
  8
0
  6
CONTINUOUS
 62
     3
100
AcDbLine
 10
42.68827408365977
 20
-1.920808900499658
 30
0.0
 11
41.94157619147151
 21
-2.547362826435649
 31
0.0
  0
LINE
  5
A1
330
1F
100
AcDbEntity
  8
0
  6
CONTINUOUS
 62
     3
100
AcDbLine
 10
42.12334857443997
 20
-0.469694981908642
 30
0.0
 11
42.749902500376
 21
-1.216392874096894
 31
0.0
  0
LINE
  5
A2
330
1F
100
AcDbEntity
  8
0
  6
CONTINUOUS
 62
     3
100
AcDbLine
 10
43.31482800959578
 20
-2.667506792687899
 30
0.0
 11
42.68827408365977
 21
-1.920808900499658
 31
0.0
  0
LINE
  5
A3
330
1F
100
AcDbEntity
  8
0
  6
CONTINUOUS
 62
     3
100
AcDbLine
 10
43.07129630521926
 20
-1.599415095656376
 30
0.0
 11
43.69785023115527
 21
-2.346112987844624
 31
0.0
  0
CIRCLE
  5
A4
330
1F
100
AcDbEntity
  8
0
  6
CONTINUOUS
 62
     3
100
AcDbCircle
 10
42.71908829201787
 20
-1.568600887298274
 30
0.0
 40
1.25
  0
CIRCLE
  5
A5
330
1F
100
AcDbEntity
  8
0
  6
CONTINUOUS
 62
     3
100
AcDbCircle
 10
47.65000047683712
 20
-1.999999804311845
 30
0.0
 40
8.5
  0
CIRCLE
  5
A6
330
1F
100
AcDbEntity
  8
0
  6
CONTINUOUS
 62
     3
100
AcDbCircle
 10
47.65000047683712
 20
-1.999999804311845
 30
0.0
 40
7.5
  0
ARC
  5
A7
330
1F
100
AcDbEntity
  8
0
  6
CONTINUOUS
 62
     3
100
AcDbCircle
 10
47.65000047683719
 20
-1.999999804311798
 30
0.0
 40
6.7
100
AcDbArc
 50
61.77531281527928
 51
199.2164404041543
  0
ARC
  5
A8
330
1F
100
AcDbEntity
  8
0
  6
CONTINUOUS
 62
     3
100
AcDbCircle
 10
41.79545228370199
 20
-4.040652997350119
 30
0.0
 40
0.5
100
AcDbArc
 50
199.2164404041543
 51
310.0
  0
LINE
  5
A9
330
1F
100
AcDbEntity
  8
0
  6
CONTINUOUS
 62
     3
100
AcDbLine
 10
43.30157274386804
 20
-3.429571519382382
 30
0.0
 11
42.11684608854527
 21
-4.423675218909612
 31
0.0
  0
ARC
  5
AA
330
1F
100
AcDbEntity
  8
0
  6
CONTINUOUS
 62
     3
100
AcDbCircle
 10
43.62296654871132
 20
-3.812593740941871
 30
0.0
 40
0.5
100
AcDbArc
 50
40.00000000000001
 51
130.0
  0
LINE
  5
AB
330
1F
100
AcDbEntity
  8
0
  6
CONTINUOUS
 62
     3
100
AcDbLine
 10
44.00598877027081
 20
-3.4911999360986
 30
0.0
 11
45.61295779448714
 21
-5.406311043896039
 31
0.0
  0
ARC
  5
AC
330
1F
100
AcDbEntity
  8
0
  6
CONTINUOUS
 62
     3
100
AcDbCircle
 10
45.22993557292765
 20
-5.727704848739315
 30
0.0
 40
0.5
100
AcDbArc
 50
310.0
 51
400.0
  0
LINE
  5
AD
330
1F
100
AcDbEntity
  8
0
  6
CONTINUOUS
 62
     3
100
AcDbLine
 10
45.55132937777091
 20
-6.1107270702988
 30
0.0
 11
44.39643787857157
 21
-7.079796101326757
 31
0.0
  0
ARC
  5
AE
330
1F
100
AcDbEntity
  8
0
  6
CONTINUOUS
 62
     3
100
AcDbCircle
 10
44.71783168341482
 20
-7.462818322886257
 30
0.0
 40
0.5
100
AcDbArc
 50
130.0
 51
241.7753128152794
  0
ARC
  5
AF
330
1F
100
AcDbEntity
  8
0
  6
CONTINUOUS
 62
     3
100
AcDbCircle
 10
47.65000047683719
 20
-1.999999804311798
 30
0.0
 40
6.7
100
AcDbArc
 50
241.7753128152794
 51
378.2246871847206
  0
ARC
  5
B0
330
1F
100
AcDbEntity
  8
0
  6
CONTINUOUS
 62
     3
100
AcDbCircle
 10
53.53899227481762
 20
-0.0609857240846239
 30
0.0
 40
0.5
100
AcDbArc
 50
18.22468718472075
 51
130.0
  0
LINE
  5
B1
330
1F
100
AcDbEntity
  8
0
  6
CONTINUOUS
 62
     3
100
AcDbLine
 10
52.06270697077498
 20
-0.6470325335531015
 30
0.0
 11
53.21759846997436
 21
0.322036497474862
 31
0.0
  0
ARC
  5
B2
330
1F
100
AcDbEntity
  8
0
  6
CONTINUOUS
 62
     3
100
AcDbCircle
 10
51.74131316593169
 20
-0.264010311993605
 30
0.0
 40
0.5
100
AcDbArc
 50
220.0
 51
310.0
  0
LINE
  5
B3
330
1F
100
AcDbEntity
  8
0
  6
CONTINUOUS
 62
     3
100
AcDbLine
 10
49.68704315918722
 20
1.40631143527245
 30
0.0
 11
51.3582909443722
 21
-0.5854041168368767
 31
0.0
  0
ARC
  5
B4
330
1F
100
AcDbEntity
  8
0
  6
CONTINUOUS
 62
     3
100
AcDbCircle
 10
50.07006538074671
 20
1.727705240115725
 30
0.0
 40
0.5
100
AcDbArc
 50
130.0
 51
220.0
  0
LINE
  5
B5
330
1F
100
AcDbEntity
  8
0
  6
CONTINUOUS
 62
     3
100
AcDbLine
 10
49.74867157590345
 20
2.110727461675211
 30
0.0
 11
50.90356307510282
 21
3.079796492703174
 31
0.0
  0
ARC
  5
B6
330
1F
100
AcDbEntity
  8
0
  6
CONTINUOUS
 62
     3
100
AcDbCircle
 10
50.58216927025954
 20
3.462818714262671
 30
0.0
 40
0.5
100
AcDbArc
 50
310.0
 51
421.7753128152792
  0
CIRCLE
  5
B7
330
1F
100
AcDbEntity
  8
0
  6
CONTINUOUS
 62
     9
100
AcDbCircle
 10
-52.65000047683724
 20
-1.999999791383782
 30
0.0
 40
0.85
  0
CIRCLE
  5
B8
330
1F
100
AcDbEntity
  8
0
  6
CONTINUOUS
 62
     9
100
AcDbCircle
 10
-42.65000047683714
 20
-1.999999791383782
 30
0.0
 40
0.85
  0
LINE
  5
B9
330
1F
100
AcDbEntity
  8
0
  6
CONTINUOUS
 62
     9
100
AcDbLine
 10
-56.15000047683719
 20
-14.5
 30
0.0
 11
-31.90933704522381
 21
-14.5
 31
0.0
  0
LINE
  5
BA
330
1F
100
AcDbEntity
  8
0
  6
CONTINUOUS
 62
     9
100
AcDbLine
 10
-16.4500004768372
 20
-2.749999791383754
 30
0.0
 11
-21.65000047683719
 21
-2.749999791383754
 31
0.0
  0
LINE
  5
BB
330
1F
100
AcDbEntity
  8
0
  6
CONTINUOUS
 62
     9
100
AcDbLine
 10
-16.4500004768372
 20
-1.249999791383754
 30
0.0
 11
-21.65000047683719
 21
-1.249999791383754
 31
0.0
  0
LINE
  5
BC
330
1F
100
AcDbEntity
  8
0
  6
CONTINUOUS
 62
     9
100
AcDbLine
 10
-21.15000047683719
 20
-2.749999791383754
 30
0.0
 11
-21.15000047683719
 21
-1.249999791383754
 31
0.0
  0
LINE
  5
BD
330
1F
100
AcDbEntity
  8
0
  6
CONTINUOUS
 62
     9
100
AcDbLine
 10
-10.15000047683719
 20
-4.999999821186076
 30
0.0
 11
-31.65000047683719
 21
-4.999999821186076
 31
0.0
  0
LINE
  5
BE
330
1F
100
AcDbEntity
  8
0
  6
CONTINUOUS
 62
     9
100
AcDbLine
 10
-10.15000047683719
 20
1.000000238418597
 30
0.0
 11
-31.65000047683719
 21
1.000000238418597
 31
0.0
  0
LINE
  5
BF
330
1F
100
AcDbEntity
  8
0
  6
CONTINUOUS
 62
     9
100
AcDbLine
 10
-11.25000047683718
 20
-3.499999791383754
 30
0.0
 11
-26.65000047683719
 21
-3.499999791383754
 31
0.0
  0
LINE
  5
C0
330
1F
100
AcDbEntity
  8
0
  6
CONTINUOUS
 62
     9
100
AcDbLine
 10
-11.25000047683718
 20
-0.4999997913837539
 30
0.0
 11
-26.65000047683719
 21
-0.4999997913837539
 31
0.0
  0
LINE
  5
C1
330
1F
100
AcDbEntity
  8
0
  6
CONTINUOUS
 62
     9
100
AcDbLine
 10
-26.15000047683719
 20
-3.499999791383754
 30
0.0
 11
-26.15000047683719
 21
-0.4999997913837539
 31
0.0
  0
LINE
  5
C2
330
1F
100
AcDbEntity
  8
0
  6
CONTINUOUS
 62
     9
100
AcDbLine
 10
-9.650000476837189
 20
1.500000238418597
 30
0.0
 11
-9.650000476837189
 21
11.0
 31
0.0
  0
LINE
  5
C3
330
1F
100
AcDbEntity
  8
0
  6
CONTINUOUS
 62
     9
100
AcDbLine
 10
-8.850000476837192
 20
6.800000000000001
 30
0.0
 11
-8.850000476837192
 21
14.49999980431213
 31
0.0
  0
LINE
  5
C4
330
1F
100
AcDbEntity
  8
0
  6
CONTINUOUS
 62
     9
100
AcDbLine
 10
-9.650000476837189
 20
10.5
 30
0.0
 11
-8.850000476837192
 21
10.5
 31
0.0
  0
LINE
  5
C5
330
1F
100
AcDbEntity
  8
0
  6
CONTINUOUS
 62
     9
100
AcDbLine
 10
-16.15000047683719
 20
-0.9499997913837426
 30
0.0
 11
-16.15000047683719
 21
14.99999980431213
 31
0.0
  0
LINE
  5
C6
330
1F
100
AcDbEntity
  8
0
  6
CONTINUOUS
 62
     9
100
AcDbLine
 10
-8.850000476837192
 20
6.800000000000001
 30
0.0
 11
-8.850000476837192
 21
14.99999980431213
 31
0.0
  0
LINE
  5
C7
330
1F
100
AcDbEntity
  8
0
  6
CONTINUOUS
 62
     9
100
AcDbLine
 10
26.14999952316281
 20
5.563236004982887
 30
0.0
 11
26.14999952316281
 21
14.99999980431213
 31
0.0
  0
LINE
  5
C8
330
1F
100
AcDbEntity
  8
0
  6
CONTINUOUS
 62
     9
100
AcDbLine
 10
-8.850000476837192
 20
-10.79999999999999
 30
0.0
 11
-8.850000476837192
 21
-15.0
 31
0.0
  0
LINE
  5
C9
330
1F
100
AcDbEntity
  8
0
  6
CONTINUOUS
 62
     9
100
AcDbLine
 10
-10.75000047683718
 20
-3.999999791383754
 30
0.0
 11
-10.75000047683718
 21
-15.0
 31
0.0
  0
LINE
  5
CA
330
1F
100
AcDbEntity
  8
0
  6
CONTINUOUS
 62
     9
100
AcDbLine
 10
-10.75000047683718
 20
-14.5
 30
0.0
 11
-8.850000476837192
 21
-14.5
 31
0.0
  0
LINE
  5
CB
330
1F
100
AcDbEntity
  8
0
  6
CONTINUOUS
 62
     9
100
AcDbLine
 10
-52.65000047683724
 20
-0.1499997913837881
 30
0.0
 11
-52.65000047683724
 21
11.00000020861622
 31
0.0
  0
LINE
  5
CC
330
1F
100
AcDbEntity
  8
0
  6
CONTINUOUS
 62
     9
100
AcDbLine
 10
-42.65000047683714
 20
-0.1499997913837881
 30
0.0
 11
-42.65000047683714
 21
11.00000020861622
 31
0.0
  0
LINE
  5
CD
330
1F
100
AcDbEntity
  8
0
  6
CONTINUOUS
 62
     9
100
AcDbLine
 10
27.34999952316283
 20
4.60000020861627
 30
0.0
 11
27.34999952316283
 21
11.0
 31
0.0
  0
LINE
  5
CE
330
1F
100
AcDbEntity
  8
0
  6
CONTINUOUS
 62
     9
100
AcDbLine
 10
26.14999952316281
 20
5.563236004982887
 30
0.0
 11
26.14999952316281
 21
14.49999980431213
 31
0.0
  0
LINE
  5
CF
330
1F
100
AcDbEntity
  8
0
  6
CONTINUOUS
 62
     9
100
AcDbLine
 10
26.14999952316281
 20
10.5
 30
0.0
 11
27.34999952316283
 21
10.5
 31
0.0
  0
LINE
  5
D0
330
1F
100
AcDbEntity
  8
0
  6
CENTER
 62
     9
100
AcDbLine
 10
-38.15000047683719
 20
-1.999999791383782
 30
0.0
 11
-57.15000047683719
 21
-1.999999791383782
 31
0.0
  0
LINE
  5
D1
330
1F
100
AcDbEntity
  8
0
  6
CENTER
 62
     9
100
AcDbLine
 10
-47.65000047683719
 20
7.500000208616218
 30
0.0
 11
-47.65000047683719
 21
-11.49999979138378
 31
0.0
  0
LINE
  5
D2
330
1F
100
AcDbEntity
  8
0
  6
CENTER
 62
     9
100
AcDbLine
 10
-52.65000047683724
 20
-3.349999791383777
 30
0.0
 11
-52.65000047683724
 21
-0.6499997913837881
 31
0.0
  0
LINE
  5
D3
330
1F
100
AcDbEntity
  8
0
  6
CENTER
 62
     9
100
AcDbLine
 10
-42.65000047683714
 20
-3.349999791383777
 30
0.0
 11
-42.65000047683714
 21
-0.6499997913837881
 31
0.0
  0
LINE
  5
D4
330
1F
100
AcDbEntity
  8
0
  6
CENTER
 62
     9
100
AcDbLine
 10
28.34999952316283
 20
-1.999999791383726
 30
0.0
 11
-17.15000047683719
 21
-1.999999791383726
 31
0.0
  0
LINE
  5
D5
330
1F
100
AcDbEntity
  8
0
  6
CONTINUOUS
 62
     9
100
AcDbLine
 10
-52.81177842964554
 20
-2.57777820391332
 30
0.0
 11
-56.15000047683719
 21
-14.5
 31
0.0
  0
INSERT
  5
D6
330
1F
100
AcDbEntity
  8
0
 62
     9
100
AcDbBlockReference
  2
_OPEN30
 10
-52.81177842964554
 20
-2.57777820391332
 30
0.0
 41
1.500001393912182
 42
1.499994636989232
 50
74.35775379106977
  0
LINE
  5
D7
330
1F
100
AcDbEntity
  8
0
  6
CONTINUOUS
 62
     9
100
AcDbLine
 10
-26.15000047683719
 20
-0.4999997913837539
 30
0.0
 11
-26.15000047683719
 21
2.445509155194788
 31
0.0
  0
INSERT
  5
D8
330
1F
100
AcDbEntity
  8
0
 62
     9
100
AcDbBlockReference
  2
_OPEN30
 10
-26.15000047683719
 20
-0.4999997913837539
 30
0.0
 41
1.500001393912182
 42
1.499994636989232
 50
270.0
  0
LINE
  5
D9
330
1F
100
AcDbEntity
  8
0
  6
CONTINUOUS
 62
     9
100
AcDbLine
 10
-26.15000047683719
 20
-3.499999791383754
 30
0.0
 11
-26.15000047683719
 21
-6.336557024036164
 31
0.0
  0
INSERT
  5
DA
330
1F
100
AcDbEntity
  8
0
 62
     9
100
AcDbBlockReference
  2
_OPEN30
 10
-26.15000047683719
 20
-3.499999791383754
 30
0.0
 41
1.500001393912182
 42
1.499994636989232
 50
90.0
  0
LINE
  5
DB
330
1F
100
AcDbEntity
  8
0
  6
CONTINUOUS
 62
     9
100
AcDbLine
 10
-31.15000047683719
 20
-4.999999821186076
 30
0.0
 11
-31.15000047683719
 21
1.000000238418597
 31
0.0
  0
INSERT
  5
DC
330
1F
100
AcDbEntity
  8
0
 62
     9
100
AcDbBlockReference
  2
_OPEN30
 10
-31.15000047683719
 20
-4.999999821186076
 30
0.0
 41
1.500001393912182
 42
1.499994636989232
 50
270.0
  0
INSERT
  5
DD
330
1F
100
AcDbEntity
  8
0
 62
     9
100
AcDbBlockReference
  2
_OPEN30
 10
-31.15000047683719
 20
1.000000238418597
 30
0.0
 41
1.500001393912182
 42
1.499994636989232
 50
90.0
  0
LINE
  5
DE
330
1F
100
AcDbEntity
  8
0
  6
CONTINUOUS
 62
     9
100
AcDbLine
 10
-16.15000047683719
 20
14.50000001292833
 30
0.0
 11
-8.850000476837192
 21
14.50000001292833
 31
0.0
  0
INSERT
  5
DF
330
1F
100
AcDbEntity
  8
0
 62
     9
100
AcDbBlockReference
  2
_OPEN30
 10
-16.15000047683719
 20
14.50000001292833
 30
0.0
 41
1.500001393912182
 42
1.499994636989232
 50
180.0
  0
INSERT
  5
E0
330
1F
100
AcDbEntity
  8
0
 62
     9
100
AcDbBlockReference
  2
_OPEN30
 10
-8.850000476837192
 20
14.50000001292833
 30
0.0
 41
1.500001393912182
 42
1.499994636989232
 50
360.0
  0
LINE
  5
E1
330
1F
100
AcDbEntity
  8
0
  6
CONTINUOUS
 62
     9
100
AcDbLine
 10
-8.850000476837192
 20
14.50000001292833
 30
0.0
 11
26.14999952316281
 21
14.50000001292833
 31
0.0
  0
INSERT
  5
E2
330
1F
100
AcDbEntity
  8
0
 62
     9
100
AcDbBlockReference
  2
_OPEN30
 10
-8.850000476837192
 20
14.50000001292833
 30
0.0
 41
1.500001393912182
 42
1.499994636989232
 50
180.0
  0
INSERT
  5
E3
330
1F
100
AcDbEntity
  8
0
 62
     9
100
AcDbBlockReference
  2
_OPEN30
 10
26.14999952316281
 20
14.50000001292833
 30
0.0
 41
1.500001393912182
 42
1.499994636989232
 50
360.0
  0
LINE
  5
E4
330
1F
100
AcDbEntity
  8
0
  6
CONTINUOUS
 62
     9
100
AcDbLine
 10
-52.65000047683724
 20
10.50000020861622
 30
0.0
 11
-42.65000047683714
 21
10.50000020861622
 31
0.0
  0
INSERT
  5
E5
330
1F
100
AcDbEntity
  8
0
 62
     9
100
AcDbBlockReference
  2
_OPEN30
 10
-52.65000047683724
 20
10.50000020861622
 30
0.0
 41
1.500001393912182
 42
1.499994636989232
 50
180.0
  0
INSERT
  5
E6
330
1F
100
AcDbEntity
  8
0
 62
     9
100
AcDbBlockReference
  2
_OPEN30
 10
-42.65000047683714
 20
10.50000020861622
 30
0.0
 41
1.500001393912182
 42
1.499994636989232
 50
360.0
  0
LINE
  5
E7
330
1F
100
AcDbEntity
  8
0
  6
CONTINUOUS
 62
     9
100
AcDbLine
 10
6.549999523162791
 20
-10.5
 30
0.0
 11
6.549999523162791
 21
6.500000000000004
 31
0.0
  0
INSERT
  5
E8
330
1F
100
AcDbEntity
  8
0
 62
     9
100
AcDbBlockReference
  2
_OPEN30
 10
6.549999523162791
 20
-10.5
 30
0.0
 41
1.500001393912182
 42
1.499994636989232
 50
270.0
  0
INSERT
  5
E9
330
1F
100
AcDbEntity
  8
0
 62
     9
100
AcDbBlockReference
  2
_OPEN30
 10
6.549999523162791
 20
6.500000000000004
 30
0.0
 41
1.500001393912182
 42
1.499994636989232
 50
90.0
  0
LINE
  5
EA
330
1F
100
AcDbEntity
  8
0
  6
CONTINUOUS
 62
     9
100
AcDbLine
 10
39.15000047683714
 20
-14.5
 30
0.0
 11
42.38652072527452
 21
-2.773548526638014
 31
0.0
  0
INSERT
  5
EB
330
1F
100
AcDbEntity
  8
0
 62
     9
100
AcDbBlockReference
  2
_OPEN30
 10
42.38652072527452
 20
-2.773548526638014
 30
0.0
 41
1.500001393912182
 42
1.499994636989232
 50
74.57040577440193
  0
LINE
  5
EC
330
1F
100
AcDbEntity
  8
0
  6
CONTINUOUS
 62
     9
100
AcDbLine
 10
-21.15000047683719
 20
15.6400002384186
 30
0.0
 11
-21.15000047683719
 21
-1.249999791383754
 31
0.0
  0
INSERT
  5
ED
330
1F
100
AcDbEntity
  8
0
 62
     9
100
AcDbBlockReference
  2
_OPEN30
 10
-21.15000047683719
 20
-1.249999791383754
 30
0.0
 41
1.500001393912182
 42
1.499994636989232
 50
270.0
  0
LINE
  5
EE
330
1F
100
AcDbEntity
  8
0
  6
CONTINUOUS
 62
     9
100
AcDbLine
 10
-21.15000047683719
 20
-5.249999791383754
 30
0.0
 11
-21.15000047683719
 21
-2.749999791383754
 31
0.0
  0
INSERT
  5
EF
330
1F
100
AcDbEntity
  8
0
 62
     9
100
AcDbBlockReference
  2
_OPEN30
 10
-21.15000047683719
 20
-2.749999791383754
 30
0.0
 41
1.500001393912182
 42
1.499994636989232
 50
90.0
  0
LINE
  5
F0
330
1F
100
AcDbEntity
  8
0
  6
CONTINUOUS
 62
     9
100
AcDbLine
 10
18.90110952316281
 20
10.5
 30
0.0
 11
26.14999952316281
 21
10.5
 31
0.0
  0
INSERT
  5
F1
330
1F
100
AcDbEntity
  8
0
 62
     9
100
AcDbBlockReference
  2
_OPEN30
 10
26.14999952316281
 20
10.5
 30
0.0
 41
1.500001393912182
 42
1.499994636989232
 50
360.0
  0
LINE
  5
F2
330
1F
100
AcDbEntity
  8
0
  6
CONTINUOUS
 62
     9
100
AcDbLine
 10
29.84999952316283
 20
10.5
 30
0.0
 11
27.34999952316283
 21
10.5
 31
0.0
  0
INSERT
  5
F3
330
1F
100
AcDbEntity
  8
0
 62
     9
100
AcDbBlockReference
  2
_OPEN30
 10
27.34999952316283
 20
10.5
 30
0.0
 41
1.500001393912182
 42
1.499994636989232
 50
180.0
  0
LINE
  5
F4
330
1F
100
AcDbEntity
  8
0
  6
CONTINUOUS
 62
     9
100
AcDbLine
 10
-1.60111047683719
 20
10.5
 30
0.0
 11
-8.850000476837192
 21
10.5
 31
0.0
  0
INSERT
  5
F5
330
1F
100
AcDbEntity
  8
0
 62
     9
100
AcDbBlockReference
  2
_OPEN30
 10
-8.850000476837192
 20
10.5
 30
0.0
 41
1.500001393912182
 42
1.499994636989232
 50
180.0
  0
LINE
  5
F6
330
1F
100
AcDbEntity
  8
0
  6
CONTINUOUS
 62
     9
100
AcDbLine
 10
-12.15000047683719
 20
10.5
 30
0.0
 11
-9.650000476837189
 21
10.5
 31
0.0
  0
INSERT
  5
F7
330
1F
100
AcDbEntity
  8
0
 62
     9
100
AcDbBlockReference
  2
_OPEN30
 10
-9.650000476837189
 20
10.5
 30
0.0
 41
1.500001393912182
 42
1.499994636989232
 50
360.0
  0
LINE
  5
F8
330
1F
100
AcDbEntity
  8
0
  6
CONTINUOUS
 62
     9
100
AcDbLine
 10
-17.99889047683719
 20
-14.5
 30
0.0
 11
-10.75000047683718
 21
-14.5
 31
0.0
  0
INSERT
  5
F9
330
1F
100
AcDbEntity
  8
0
 62
     9
100
AcDbBlockReference
  2
_OPEN30
 10
-10.75000047683718
 20
-14.5
 30
0.0
 41
1.500001393912182
 42
1.499994636989232
 50
360.0
  0
LINE
  5
FA
330
1F
100
AcDbEntity
  8
0
  6
CONTINUOUS
 62
     9
100
AcDbLine
 10
-6.350000476837192
 20
-14.5
 30
0.0
 11
-8.850000476837192
 21
-14.5
 31
0.0
  0
INSERT
  5
FB
330
1F
100
AcDbEntity
  8
0
 62
     9
100
AcDbBlockReference
  2
_OPEN30
 10
-8.850000476837192
 20
-14.5
 30
0.0
 41
1.500001393912182
 42
1.499994636989232
 50
180.0
  0
LINE
  5
FC
330
1F
100
AcDbEntity
  8
0
  6
CONTINUOUS
 62
     9
100
AcDbLine
 10
-26.15000047683719
 20
10.3600002384186
 30
0.0
 11
-26.15000047683719
 21
-0.4999997913837539
 31
0.0
  0
INSERT
  5
FD
330
1F
100
AcDbEntity
  8
0
 62
     9
100
AcDbBlockReference
  2
_OPEN30
 10
-26.15000047683719
 20
-0.4999997913837539
 30
0.0
 41
1.500001393912182
 42
1.499994636989232
 50
270.0
  0
LINE
  5
FE
330
1F
100
AcDbEntity
  8
0
  6
CONTINUOUS
 62
     9
100
AcDbLine
 10
-26.15000047683719
 20
-5.999999791383754
 30
0.0
 11
-26.15000047683719
 21
-3.499999791383754
 31
0.0
  0
INSERT
  5
FF
330
1F
100
AcDbEntity
  8
0
 62
     9
100
AcDbBlockReference
  2
_OPEN30
 10
-26.15000047683719
 20
-3.499999791383754
 30
0.0
 41
1.500001393912182
 42
1.499994636989232
 50
90.0
  0
TEXT
  5
100
330
1F
100
AcDbEntity
  8
0
 62
     7
100
AcDbText
 10
-54.23716019245991
 20
-14.0
 30
0.0
 40
2.0
  1
2-Ｍ1.7（Ｐ＝0.35）
 41
0.7466666666666667
  7
FDASTYLE0
 72
     5
 11
-31.83716019245991
 21
-14.0
 31
0.0
100
AcDbText
  0
TEXT
  5
101
330
1F
100
AcDbEntity
  8
0
 62
     7
100
AcDbText
 10
-21.65000047683719
 20
2.000000238418597
 30
0.0
 40
2.0
  1
φ1.5
 50
90.0
 41
0.7619047619047619
  7
FDASTYLE0
 72
     5
 11
-21.65000047683719
 21
8.400000238418597
 31
0.0
100
AcDbText
  0
TEXT
  5
102
330
1F
100
AcDbEntity
  8
0
 62
     7
100
AcDbText
 10
-22.95000047683719
 20
8.900000238418597
 30
0.0
 40
1.3
  1
-0.005
 50
90.0
 41
0.7999999999999997
  7
FDASTYLE0
 72
     5
 11
-22.95000047683719
 21
15.1400002384186
 31
0.0
100
AcDbText
  0
TEXT
  5
103
330
1F
100
AcDbEntity
  8
0
 62
     7
100
AcDbText
 10
-21.55000047683719
 20
8.900000238418597
 30
0.0
 40
1.3
  1
-0.010
 50
90.0
 41
0.7999999999999999
  7
FDASTYLE0
 72
     5
 11
-21.55000047683719
 21
15.1400002384186
 31
0.0
100
AcDbText
  0
TEXT
  5
104
330
1F
100
AcDbEntity
  8
0
 62
     7
100
AcDbText
 10
-31.65000047683719
 20
-6.64999979138374
 30
0.0
 40
2.0
  1
φ6
 50
90.0
 41
0.7272727272727279
  7
FDASTYLE0
 72
     5
 11
-31.65000047683719
 21
-3.449999791383737
 31
0.0
100
AcDbText
  0
TEXT
  5
105
330
1F
100
AcDbEntity
  8
0
 62
     7
100
AcDbText
 10
-32.95000047683719
 20
-2.949999791383737
 30
0.0
 40
1.3
  1
 0
 50
90.0
 41
0.7999999999999993
  7
FDASTYLE0
 72
     5
 11
-32.95000047683719
 21
-0.869999791383739
 31
0.0
100
AcDbText
  0
TEXT
  5
106
330
1F
100
AcDbEntity
  8
0
 62
     7
100
AcDbText
 10
-31.55000047683718
 20
-2.949999791383737
 30
0.0
 40
1.3
  1
-0.03
 50
90.0
 41
0.7999999999999999
  7
FDASTYLE0
 72
     5
 11
-31.55000047683718
 21
2.250000208616262
 31
0.0
100
AcDbText
  0
TEXT
  5
107
330
1F
100
AcDbEntity
  8
0
 62
     7
100
AcDbText
 10
-26.65000047683719
 20
2.000000238418597
 30
0.0
 40
2.0
  1
φ3
 50
90.0
 41
0.7272727272727271
  7
FDASTYLE0
 72
     5
 11
-26.65000047683719
 21
5.200000238418596
 31
0.0
100
AcDbText
  0
TEXT
  5
108
330
1F
100
AcDbEntity
  8
0
 62
     7
100
AcDbText
 10
-6.901110476837191
 20
11.0
 30
0.0
 40
2.0
  1
0.8
 41
0.8000000000000002
  7
FDASTYLE0
 72
     5
 11
-2.10111047683719
 21
11.0
 31
0.0
100
AcDbText
  0
TEXT
  5
109
330
1F
100
AcDbEntity
  8
0
 62
     7
100
AcDbText
 10
-14.90000047683719
 20
15.00000001292833
 30
0.0
 40
2.0
  1
7.3
 41
0.8000000000000002
  7
FDASTYLE0
 72
     5
 11
-10.10000047683719
 21
15.00000001292833
 31
0.0
100
AcDbText
  0
TEXT
  5
10A
330
1F
100
AcDbEntity
  8
0
 62
     7
100
AcDbText
 10
7.049999523162809
 20
15.00000001292833
 30
0.0
 40
2.0
  1
35
 41
0.7999999999999998
  7
FDASTYLE0
 72
     5
 11
10.24999952316281
 21
15.00000001292833
 31
0.0
100
AcDbText
  0
TEXT
  5
10B
330
1F
100
AcDbEntity
  8
0
 62
     7
100
AcDbText
 10
-17.49889047683718
 20
-14.0
 30
0.0
 40
2.0
  1
1.9
 41
0.7999999999999998
  7
FDASTYLE0
 72
     5
 11
-12.69889047683718
 21
-14.0
 31
0.0
100
AcDbText
  0
TEXT
  5
10C
330
1F
100
AcDbEntity
  8
0
 62
     7
100
AcDbText
 10
-49.25000047683718
 20
11.00000020861622
 30
0.0
 40
2.0
  1
10
 41
0.8000000000000007
  7
FDASTYLE0
 72
     5
 11
-46.05000047683718
 21
11.00000020861622
 31
0.0
100
AcDbText
  0
TEXT
  5
10D
330
1F
100
AcDbEntity
  8
0
 62
     7
100
AcDbText
 10
19.40110952316281
 20
11.0
 30
0.0
 40
2.0
  1
1.2
 41
0.8000000000000002
  7
FDASTYLE0
 72
     5
 11
24.20110952316281
 21
11.0
 31
0.0
100
AcDbText
  0
TEXT
  5
10E
330
1F
100
AcDbEntity
  8
0
 62
     7
100
AcDbText
 10
6.049999523162791
 20
-6.889999999999997
 30
0.0
 40
2.0
  1
φ17
 50
90.0
 41
0.7500000000000001
  7
FDASTYLE0
 72
     5
 11
6.049999523162791
 21
-2.089999999999996
 31
0.0
100
AcDbText
  0
TEXT
  5
10F
330
1F
100
AcDbEntity
  8
0
 62
     7
100
AcDbText
 10
4.74999952316279
 20
-1.589999999999996
 30
0.0
 40
1.3
  1
±0.2
 50
90.0
 41
0.7619047619047619
  7
FDASTYLE0
 72
     5
 11
4.74999952316279
 21
2.570000000000004
 31
0.0
100
AcDbText
  0
TEXT
  5
110
330
1F
100
AcDbEntity
  8
0
 62
     7
100
AcDbText
 10
-54.23716019245991
 20
-17.0
 30
0.0
 40
2.0
  1
ＤＥＰＴＨ　2ＭＡＸ
 41
0.6779661016949153
  7
FDASTYLE0
 72
     5
 11
-38.23716019245991
 21
-17.0
 31
0.0
100
AcDbText
  0
TEXT
  5
111
330
1F
100
AcDbEntity
  8
0
 62
     7
100
AcDbText
 10
27.48928529060624
 20
-14.21708227276394
 30
0.0
 40
2.0
  1
（＋）ＭＡＲＫ
 41
0.6666666666666666
  7
FDASTYLE0
 72
     5
 11
38.68928529060624
 21
-14.21708227276394
 31
0.0
100
AcDbText
  0
TEXT
  5
112
330
1F
100
AcDbEntity
  8
0
 62
     7
100
AcDbText
 10
-27.95000047683719
 20
5.700000238418596
 30
0.0
 40
1.3
  1
±0.2
 50
90.0
 41
0.7619047619047619
  7
FDASTYLE0
 72
     5
 11
-27.95000047683719
 21
9.860000238418596
 31
0.0
100
AcDbText
  0
INSERT
  5
113
330
1F
100
AcDbEntity
  8
0
  6
CONTINUOUS
100
AcDbBlockReference
  2
DA_IMAGEDIMGROUP_1
 10
0.0
 20
0.0
 30
0.0
  0
INSERT
  5
114
330
1F
100
AcDbEntity
  8
0
  6
CONTINUOUS
100
AcDbBlockReference
  2
DA_IMAGEDIMGROUP_2
 10
0.0
 20
0.0
 30
0.0
  0
LINE
  5
115
330
1F
100
AcDbEntity
  8
0
  6
CONTINUOUS
 62
     9
100
AcDbLine
 10
27.96345323596865
 20
-14.5
 30
0.0
 11
39.15000047683714
 21
-14.5
 31
0.0
  0
LINE
  5
116
330
1F
100
AcDbEntity
  8
0
  6
CENTER
 62
     9
100
AcDbLine
 10
57.15000047683719
 20
-1.999999804311898
 30
0.0
 11
38.15000047683708
 21
-1.999999804311926
 31
0.0
  0
LINE
  5
117
330
1F
100
AcDbEntity
  8
0
  6
CENTER
 62
     9
100
AcDbLine
 10
47.65000047683714
 20
7.500000195688131
 30
0.0
 11
47.65000047683714
 21
-11.49999980431198
 31
0.0
  0
VIEWPORT
  5
46
330
1B
100
AcDbEntity
 67
     1
  8
0
100
AcDbViewport
 10
0.0
 20
0.0000000064641661
 30
0.0
 40
342.9000028610232
 41
102.000000038785
 68
     1
 69
     1
1001
ACAD
1000
MVIEW
1002
{
1070
    16
1010
0.0
1020
0.0
1030
0.0
1010
0.0
1020
0.0
1030
1.0
1040
0.0
1040
102.000000038785
1040
0.0
1040
0.0000000064641661
1040
50.0
1040
0.0
1040
0.0
1070
     0
1070
   100
1070
     0
1070
     1
1070
     0
1070
     0
1070
     0
1070
     0
1040
0.0
1040
0.0
1040
0.0
1040
0.5
1040
0.5
1040
0.0
1040
0.0
1070
     0
1002
{
1002
}
1002
}
  0
ENDSEC
  0
SECTION
  2
OBJECTS
  0
DICTIONARY
  5
C
330
0
100
AcDbDictionary
  3
ACAD_GROUP
350
D
  3
ACAD_LAYOUT
350
1A
  3
ACAD_MLINESTYLE
350
17
  3
ACAD_PLOTSETTINGS
350
19
  3
ACDBHEADERROUNDTRIPXREC
350
118
  0
DICTIONARY
  5
D
102
{ACAD_REACTORS
330
C
102
}
330
C
100
AcDbDictionary
  0
DICTIONARY
  5
1A
102
{ACAD_REACTORS
330
C
102
}
330
C
100
AcDbDictionary
  0
DICTIONARY
  5
17
102
{ACAD_REACTORS
330
C
102
}
330
C
100
AcDbDictionary
  3
STANDARD
350
18
  0
DICTIONARY
  5
19
102
{ACAD_REACTORS
330
C
102
}
330
C
100
AcDbDictionary
  0
DICTIONARY
  5
118
102
{ACAD_REACTORS
330
C
102
}
330
C
100
AcDbDictionary
  3
CEPSNTYPE
350
121
  3
DIMSTYLEDATA
350
137
  3
FINGERPRINTGUID
350
122
  3
HYPERLINKBASE
350
11B
  3
INSUNITS
350
120
  3
LAYOUTDICT
350
11D
  3
LWETCUNION
350
11F
  3
PLOTSETDICT
350
11E
  3
PSVPSCALE
350
124
  3
PUCSBASE
350
127
  3
PUCSORGBACK
350
12D
  3
PUCSORGBOTTOM
350
129
  3
PUCSORGFRONT
350
12C
  3
PUCSORGLEFT
350
12A
  3
PUCSORGRIGHT
350
12B
  3
PUCSORGTOP
350
128
  3
PUCSORTHOREF
350
125
  3
PUCSORTHOVIEW
350
126
  3
STYLESHEET
350
11C
  3
TSTACKALIGN
350
119
  3
TSTACKSIZE
350
11A
  3
UCSBASE
350
130
  3
UCSORGBACK
350
136
  3
UCSORGBOTTOM
350
132
  3
UCSORGFRONT
350
135
  3
UCSORGLEFT
350
133
  3
UCSORGRIGHT
350
134
  3
UCSORGTOP
350
131
  3
UCSORTHOREF
350
12E
  3
UCSORTHOVIEW
350
12F
  3
VERSIONGUID
350
123
  0
MLINESTYLE
  5
18
102
{ACAD_REACTORS
330
17
102
}
330
17
100
AcDbMlineStyle
  2
Standard
 70
     0
  3

 62
   256
 51
90.0
 52
90.0
 71
     2
 49
0.5
 62
   256
  6
BYLAYER
 49
-0.5
 62
   256
  6
BYLAYER
  0
XRECORD
  5
121
102
{ACAD_REACTORS
330
118
102
}
330
118
100
AcDbXrecord
 90
        0
  0
XRECORD
  5
137
102
{ACAD_REACTORS
330
118
102
}
330
118
100
AcDbXrecord
1000
DSTYLE
1002
{
1070
   171
 70
     2
1070
   143
 40
25.4
1070
   274
 70
     2
1070
    41
 40
1.25
1070
   141
 40
0.09
1070
   271
 70
     4
1070
    43
 40
0.38
1070
    44
 40
0.18
1070
   278
 70
    46
1070
    42
 40
0.0625
1070
   147
 40
0.09
1070
    77
 70
     3
1070
   272
 70
     4
1070
    73
 70
     1
1070
   172
 70
     0
1070
    74
 70
     1
1070
   283
 70
     1
1070
   340
340
11
1070
   140
 40
0.18
1070
   284
 70
     0
1070
    78
 70
     0
1002
}
  0
XRECORD
  5
122
102
{ACAD_REACTORS
330
118
102
}
330
118
100
AcDbXrecord
  1
{345AECBC-E3EF-451B-9432-D4EE6CCF2A8E}
  0
XRECORD
  5
11B
102
{ACAD_REACTORS
330
118
102
}
330
118
100
AcDbXrecord
  1

  0
XRECORD
  5
120
102
{ACAD_REACTORS
330
118
102
}
330
118
100
AcDbXrecord
 90
        4
  0
XRECORD
  5
11D
102
{ACAD_REACTORS
330
118
102
}
330
118
100
AcDbXrecord
340
1A
  0
XRECORD
  5
11F
102
{ACAD_REACTORS
330
118
102
}
330
118
100
AcDbXrecord
 90
    10781
  0
XRECORD
  5
11E
102
{ACAD_REACTORS
330
118
102
}
330
118
100
AcDbXrecord
340
19
  0
XRECORD
  5
124
102
{ACAD_REACTORS
330
118
102
}
330
118
100
AcDbXrecord
 40
0.0
  0
XRECORD
  5
127
102
{ACAD_REACTORS
330
118
102
}
330
118
100
AcDbXrecord
340
0
  0
XRECORD
  5
12D
102
{ACAD_REACTORS
330
118
102
}
330
118
100
AcDbXrecord
 10
0.0
 20
0.0
 30
0.0
  0
XRECORD
  5
129
102
{ACAD_REACTORS
330
118
102
}
330
118
100
AcDbXrecord
 10
0.0
 20
0.0
 30
0.0
  0
XRECORD
  5
12C
102
{ACAD_REACTORS
330
118
102
}
330
118
100
AcDbXrecord
 10
0.0
 20
0.0
 30
0.0
  0
XRECORD
  5
12A
102
{ACAD_REACTORS
330
118
102
}
330
118
100
AcDbXrecord
 10
0.0
 20
0.0
 30
0.0
  0
XRECORD
  5
12B
102
{ACAD_REACTORS
330
118
102
}
330
118
100
AcDbXrecord
 10
0.0
 20
0.0
 30
0.0
  0
XRECORD
  5
128
102
{ACAD_REACTORS
330
118
102
}
330
118
100
AcDbXrecord
 10
0.0
 20
0.0
 30
0.0
  0
XRECORD
  5
125
102
{ACAD_REACTORS
330
118
102
}
330
118
100
AcDbXrecord
340
0
  0
XRECORD
  5
126
102
{ACAD_REACTORS
330
118
102
}
330
118
100
AcDbXrecord
 70
     0
  0
XRECORD
  5
11C
102
{ACAD_REACTORS
330
118
102
}
330
118
100
AcDbXrecord
  1

  0
XRECORD
  5
119
102
{ACAD_REACTORS
330
118
102
}
330
118
100
AcDbXrecord
 90
        1
  0
XRECORD
  5
11A
102
{ACAD_REACTORS
330
118
102
}
330
118
100
AcDbXrecord
 90
       70
  0
XRECORD
  5
130
102
{ACAD_REACTORS
330
118
102
}
330
118
100
AcDbXrecord
340
0
  0
XRECORD
  5
136
102
{ACAD_REACTORS
330
118
102
}
330
118
100
AcDbXrecord
 10
0.0
 20
0.0
 30
0.0
  0
XRECORD
  5
132
102
{ACAD_REACTORS
330
118
102
}
330
118
100
AcDbXrecord
 10
0.0
 20
0.0
 30
0.0
  0
XRECORD
  5
135
102
{ACAD_REACTORS
330
118
102
}
330
118
100
AcDbXrecord
 10
0.0
 20
0.0
 30
0.0
  0
XRECORD
  5
133
102
{ACAD_REACTORS
330
118
102
}
330
118
100
AcDbXrecord
 10
0.0
 20
0.0
 30
0.0
  0
XRECORD
  5
134
102
{ACAD_REACTORS
330
118
102
}
330
118
100
AcDbXrecord
 10
0.0
 20
0.0
 30
0.0
  0
XRECORD
  5
131
102
{ACAD_REACTORS
330
118
102
}
330
118
100
AcDbXrecord
 10
0.0
 20
0.0
 30
0.0
  0
XRECORD
  5
12E
102
{ACAD_REACTORS
330
118
102
}
330
118
100
AcDbXrecord
340
0
  0
XRECORD
  5
12F
102
{ACAD_REACTORS
330
118
102
}
330
118
100
AcDbXrecord
 70
     0
  0
XRECORD
  5
123
102
{ACAD_REACTORS
330
118
102
}
330
118
100
AcDbXrecord
  1
{FAEB1C32-E019-11D5-929B-00C0DF256EC4}
  0
ENDSEC
  0
EOF
