  0
SECTION
  2
HEADER
  9
$ACADVER
  1
AC1014
  9
$ACADMAINTVER
 70
     9
  9
$DWGCODEPAGE
  3
ANSI_932
  9
$INSBASE
 10
0.0
 20
0.0
 30
0.0
  9
$EXTMIN
 10
-184.3625781972963
 20
-54.48500000000001
 30
0.0
  9
$EXTMAX
 10
184.3625781972963
 20
54.98500000000001
 30
0.0
  9
$LIMMIN
 10
-74.25
 20
-52.5
  9
$LIMMAX
 10
74.25
 20
52.5
  9
$ORTHOMODE
 70
     0
  9
$REGENMODE
 70
     1
  9
$FILLMODE
 70
     1
  9
$QTEXTMODE
 70
     0
  9
$MIRRTEXT
 70
     1
  9
$DRAGMODE
 70
     2
  9
$LTSCALE
 40
0.5
  9
$OSMODE
 70
    37
  9
$ATTMODE
 70
     1
  9
$TEXTSIZE
 40
0.2
  9
$TRACEWID
 40
0.05
  9
$TEXTSTYLE
  7
STANDARD
  9
$CLAYER
  8
0
  9
$CELTYPE
  6
BYLAYER
  9
$CECOLOR
 62
   256
  9
$CELTSCALE
 40
1.0
  9
$DELOBJ
 70
     1
  9
$DISPSILH
 70
     0
  9
$DIMSCALE
 40
1.0
  9
$DIMASZ
 40
1.25
  9
$DIMEXO
 40
0.0625
  9
$DIMDLI
 40
0.38
  9
$DIMRND
 40
0.0
  9
$DIMDLE
 40
0.0
  9
$DIMEXE
 40
0.18
  9
$DIMTP
 40
0.0
  9
$DIMTM
 40
0.0
  9
$DIMTXT
 40
0.18
  9
$DIMCEN
 40
0.09
  9
$DIMTSZ
 40
0.0
  9
$DIMTOL
 70
     0
  9
$DIMLIM
 70
     0
  9
$DIMTIH
 70
     1
  9
$DIMTOH
 70
     1
  9
$DIMSE1
 70
     0
  9
$DIMSE2
 70
     0
  9
$DIMTAD
 70
     3
  9
$DIMZIN
 70
     0
  9
$DIMBLK
  1

  9
$DIMASO
 70
     1
  9
$DIMSHO
 70
     1
  9
$DIMPOST
  1

  9
$DIMAPOST
  1

  9
$DIMALT
 70
     0
  9
$DIMALTD
 70
     2
  9
$DIMALTF
 40
25.4
  9
$DIMLFAC
 40
1.0
  9
$DIMTOFL
 70
     0
  9
$DIMTVP
 40
0.0
  9
$DIMTIX
 70
     0
  9
$DIMSOXD
 70
     0
  9
$DIMSAH
 70
     0
  9
$DIMBLK1
  1

  9
$DIMBLK2
  1

  9
$DIMSTYLE
  2
STANDARD
  9
$DIMCLRD
 70
     0
  9
$DIMCLRE
 70
     0
  9
$DIMCLRT
 70
     0
  9
$DIMTFAC
 40
1.0
  9
$DIMGAP
 40
0.09
  9
$DIMJUST
 70
     0
  9
$DIMSD1
 70
     0
  9
$DIMSD2
 70
     0
  9
$DIMTOLJ
 70
     1
  9
$DIMTZIN
 70
     0
  9
$DIMALTZ
 70
     0
  9
$DIMALTTZ
 70
     0
  9
$DIMFIT
 70
     3
  9
$DIMUPT
 70
     0
  9
$DIMUNIT
 70
     2
  9
$DIMDEC
 70
     4
  9
$DIMTDEC
 70
     4
  9
$DIMALTU
 70
     2
  9
$DIMALTTD
 70
     2
  9
$DIMTXSTY
  7
STANDARD
  9
$DIMAUNIT
 70
     0
  9
$LUNITS
 70
     2
  9
$LUPREC
 70
     4
  9
$SKETCHINC
 40
0.1
  9
$FILLETRAD
 40
0.5
  9
$AUNITS
 70
     0
  9
$AUPREC
 70
     0
  9
$MENU
  1
.
  9
$ELEVATION
 40
0.0
  9
$PELEVATION
 40
0.0
  9
$THICKNESS
 40
0.0
  9
$LIMCHECK
 70
     0
  9
$CHAMFERA
 40
0.5
  9
$CHAMFERB
 40
0.5
  9
$CHAMFERC
 40
1.0
  9
$CHAMFERD
 40
0.0
  9
$SKPOLY
 70
     0
  9
$TDCREATE
 40
2456274.482712662
  9
$TDUPDATE
 40
2456274.482712674
  9
$TDINDWG
 40
0.0000000116
  9
$TDUSRTIMER
 40
0.0000000116
  9
$USRTIMER
 70
     1
  9
$ANGBASE
 50
0.0
  9
$ANGDIR
 70
     0
  9
$PDMODE
 70
     0
  9
$PDSIZE
 40
1.0
  9
$PLINEWID
 40
0.0
  9
$COORDS
 70
     1
  9
$SPLFRAME
 70
     0
  9
$SPLINETYPE
 70
     6
  9
$SPLINESEGS
 70
     8
  9
$ATTDIA
 70
     0
  9
$ATTREQ
 70
     1
  9
$HANDLING
 70
     1
  9
$HANDSEED
  5
165
  9
$SURFTAB1
 70
     6
  9
$SURFTAB2
 70
     6
  9
$SURFTYPE
 70
     6
  9
$SURFU
 70
     6
  9
$SURFV
 70
     6
  9
$UCSNAME
  2

  9
$UCSORG
 10
0.0
 20
0.0
 30
0.0
  9
$UCSXDIR
 10
1.0
 20
0.0
 30
0.0
  9
$UCSYDIR
 10
0.0
 20
1.0
 30
0.0
  9
$PUCSNAME
  2

  9
$PUCSORG
 10
0.0
 20
0.0
 30
0.0
  9
$PUCSXDIR
 10
1.0
 20
0.0
 30
0.0
  9
$PUCSYDIR
 10
0.0
 20
1.0
 30
0.0
  9
$USERI1
 70
     0
  9
$USERI2
 70
     0
  9
$USERI3
 70
     0
  9
$USERI4
 70
     0
  9
$USERI5
 70
     0
  9
$USERR1
 40
0.0
  9
$USERR2
 40
0.0
  9
$USERR3
 40
0.0
  9
$USERR4
 40
0.0
  9
$USERR5
 40
0.0
  9
$WORLDVIEW
 70
     1
  9
$SHADEDGE
 70
     3
  9
$SHADEDIF
 70
    70
  9
$TILEMODE
 70
     1
  9
$MAXACTVP
 70
    64
  9
$PINSBASE
 10
0.0
 20
0.0
 30
0.0
  9
$PLIMCHECK
 70
     0
  9
$PEXTMIN
 10
1.000000000000000E+20
 20
1.000000000000000E+20
 30
1.000000000000000E+20
  9
$PEXTMAX
 10
-1.000000000000000E+20
 20
-1.000000000000000E+20
 30
-1.000000000000000E+20
  9
$PLIMMIN
 10
0.0
 20
0.0
  9
$PLIMMAX
 10
12.0
 20
9.0
  9
$UNITMODE
 70
     0
  9
$VISRETAIN
 70
     0
  9
$PLINEGEN
 70
     1
  9
$PSLTSCALE
 70
     0
  9
$TREEDEPTH
 70
  3020
  9
$PICKSTYLE
 70
     1
  9
$CMLSTYLE
  2
STANDARD
  9
$CMLJUST
 70
     0
  9
$CMLSCALE
 40
1.0
  9
$PROXYGRAPHICS
 70
     0
  9
$MEASUREMENT
 70
     1
  0
ENDSEC
  0
SECTION
  2
CLASSES
  0
CLASS
  1
ACDBDICTIONARYWDFLT
  2
AcDbDictionaryWithDefault
  3
ObjectDBX Classes
 90
        0
280
     0
281
     0
  0
CLASS
  1
XRECORD
  2
AcDbXrecord
  3
AutoCAD 2000
 90
        0
280
     0
281
     0
  0
CLASS
  1
LWPOLYLINE
  2
AcDbPolyline
  3
AutoCAD 2000
 90
        0
280
     0
281
     1
  0
CLASS
  1
HATCH
  2
AcDbHatch
  3
AutoCAD 2000
 90
        0
280
     0
281
     1
  0
CLASS
  1
ACDBPLACEHOLDER
  2
AcDbPlaceHolder
  3
ObjectDBX Classes
 90
        0
280
     0
281
     0
  0
CLASS
  1
LAYOUT
  2
AcDbLayout
  3
ObjectDBX Classes
 90
        0
280
     0
281
     0
  0
ENDSEC
  0
SECTION
  2
TABLES
  0
TABLE
  2
VPORT
  5
8
330
0
100
AcDbSymbolTable
 70
     1
  0
VPORT
  5
29
330
8
100
AcDbSymbolTableRecord
100
AcDbViewportTableRecord
  2
*ACTIVE
 70
     0
 10
0.0
 20
0.0
 11
1.0
 21
1.0
 12
0.0
 22
0.0
 13
0.0
 23
0.0
 14
0.5
 24
0.5
 15
0.5
 25
0.5
 16
0.0
 26
0.0
 36
1.0
 17
0.0000000000000036
 27
0.25
 37
0.0
 40
37.21980000000001
 41
3.368275841733741
 42
50.0
 43
0.0
 44
0.0
 50
0.0
 51
0.0
 71
     0
 72
  1000
 73
     1
 74
     1
 75
     0
 76
     0
 77
     0
 78
     0
  0
ENDTAB
  0
TABLE
  2
LTYPE
  5
5
330
0
100
AcDbSymbolTable
 70
    28
  0
LTYPE
  5
14
330
5
100
AcDbSymbolTableRecord
100
AcDbLinetypeTableRecord
  2
BYBLOCK
 70
     0
  3

 72
    65
 73
     0
 40
0.0
  0
LTYPE
  5
15
330
5
100
AcDbSymbolTableRecord
100
AcDbLinetypeTableRecord
  2
BYLAYER
 70
     0
  3

 72
    65
 73
     0
 40
0.0
  0
LTYPE
  5
16
330
5
100
AcDbSymbolTableRecord
100
AcDbLinetypeTableRecord
  2
CONTINUOUS
 70
     0
  3
Solid line
 72
    65
 73
     0
 40
0.0
  0
LTYPE
  5
2B
330
5
100
AcDbSymbolTableRecord
100
AcDbLinetypeTableRecord
  2
HIDDENX2
 70
     0
  3
CADPAC LINETYPE
 72
    65
 73
     2
 40
4.320987654320959
 49
3.240740740740719
 74
     0
 49
-1.08024691358024
 74
     0
  0
LTYPE
  5
2C
330
5
100
AcDbSymbolTableRecord
100
AcDbLinetypeTableRecord
  2
HIDDEN
 70
     0
  3
CADPAC LINETYPE
 72
    65
 73
     2
 40
3.240740740740719
 49
2.160493827160479
 74
     0
 49
-1.08024691358024
 74
     0
  0
LTYPE
  5
2D
330
5
100
AcDbSymbolTableRecord
100
AcDbLinetypeTableRecord
  2
HIDDEN2
 70
     0
  3
CADPAC LINETYPE
 72
    65
 73
     2
 40
2.700617283950599
 49
1.62037037037036
 74
     0
 49
-1.08024691358024
 74
     0
  0
LTYPE
  5
2E
330
5
100
AcDbSymbolTableRecord
100
AcDbLinetypeTableRecord
  2
DASHED
 70
     0
  3
CADPAC LINETYPE
 72
    65
 73
     2
 40
3.024691358024683
 49
2.160493827160479
 74
     0
 49
-0.8641975308642032
 74
     0
  0
LTYPE
  5
2F
330
5
100
AcDbSymbolTableRecord
100
AcDbLinetypeTableRecord
  2
DASHED2
 70
     0
  3
CADPAC LINETYPE
 72
    65
 73
     2
 40
1.944444444444457
 49
1.296296296296305
 74
     0
 49
-0.6481481481481524
 74
     0
  0
LTYPE
  5
30
330
5
100
AcDbSymbolTableRecord
100
AcDbLinetypeTableRecord
  2
DASHEDX2
 70
     0
  3
CADPAC LINETYPE
 72
    65
 73
     2
 40
5.185185185185219
 49
4.320987654321016
 74
     0
 49
-0.8641975308642032
 74
     0
  0
LTYPE
  5
31
330
5
100
AcDbSymbolTableRecord
100
AcDbLinetypeTableRecord
  2
DOTX2
 70
     0
  3
CADPAC LINETYPE
 72
    65
 73
     2
 40
1.890432098765444
 49
0.0
 74
     0
 49
-1.890432098765444
 74
     0
  0
LTYPE
  5
32
330
5
100
AcDbSymbolTableRecord
100
AcDbLinetypeTableRecord
  2
DOT
 70
     0
  3
CADPAC LINETYPE
 72
    65
 73
     2
 40
1.512345679012356
 49
0.0
 74
     0
 49
-1.512345679012356
 74
     0
  0
LTYPE
  5
33
330
5
100
AcDbSymbolTableRecord
100
AcDbLinetypeTableRecord
  2
DOT2
 70
     0
  3
CADPAC LINETYPE
 72
    65
 73
     2
 40
1.134259259259267
 49
0.0
 74
     0
 49
-1.134259259259267
 74
     0
  0
LTYPE
  5
34
330
5
100
AcDbSymbolTableRecord
100
AcDbLinetypeTableRecord
  2
CENTERX2
 70
     0
  3
CADPAC LINETYPE
 72
    65
 73
     4
 40
6.481481481481438
 49
2.700617283950599
 74
     0
 49
-1.3503086419753
 74
     0
 49
1.08024691358024
 74
     0
 49
-1.3503086419753
 74
     0
  0
LTYPE
  5
35
330
5
100
AcDbSymbolTableRecord
100
AcDbLinetypeTableRecord
  2
CENTER
 70
     0
  3
CADPAC LINETYPE
 72
    65
 73
     4
 40
4.969135802469102
 49
2.160493827160479
 74
     0
 49
-1.08024691358024
 74
     0
 49
0.6481481481481438
 74
     0
 49
-1.08024691358024
 74
     0
  0
LTYPE
  5
36
330
5
100
AcDbSymbolTableRecord
100
AcDbLinetypeTableRecord
  2
CENTER2
 70
     0
  3
CADPAC LINETYPE
 72
    65
 73
     4
 40
3.456790123456767
 49
1.62037037037036
 74
     0
 49
-0.8101851851851798
 74
     0
 49
0.216049382716048
 74
     0
 49
-0.8101851851851798
 74
     0
  0
LTYPE
  5
37
330
5
100
AcDbSymbolTableRecord
100
AcDbLinetypeTableRecord
  2
DASHDOTX2
 70
     0
  3
CADPAC LINETYPE
 72
    65
 73
     4
 40
10.37037037037032
 49
5.18518518518519
 74
     0
 49
-1.728395061728378
 74
     0
 49
1.728395061728378
 74
     0
 49
-1.728395061728378
 74
     0
  0
LTYPE
  5
38
330
5
100
AcDbSymbolTableRecord
100
AcDbLinetypeTableRecord
  2
DASHDOT
 70
     0
  3
CADPAC LINETYPE
 72
    65
 73
     4
 40
5.185185185185219
 49
2.592592592592609
 74
     0
 49
-0.8641975308642032
 74
     0
 49
0.8641975308642032
 74
     0
 49
-0.8641975308642032
 74
     0
  0
LTYPE
  5
39
330
5
100
AcDbSymbolTableRecord
100
AcDbLinetypeTableRecord
  2
DASHDOT2
 70
     0
  3
CADPAC LINETYPE
 72
    65
 73
     4
 40
3.327160493827182
 49
1.944444444444457
 74
     0
 49
-0.6481481481481524
 74
     0
 49
0.0864197530864203
 74
     0
 49
-0.6481481481481524
 74
     0
  0
LTYPE
  5
3A
330
5
100
AcDbSymbolTableRecord
100
AcDbLinetypeTableRecord
  2
DIVIDEX2
 70
     0
  3
CADPAC LINETYPE
 72
    65
 73
     6
 40
13.82716049382708
 49
5.18518518518519
 74
     0
 49
-1.728395061728378
 74
     0
 49
1.728395061728378
 74
     0
 49
-1.728395061728378
 74
     0
 49
1.728395061728378
 74
     0
 49
-1.728395061728378
 74
     0
  0
LTYPE
  5
3B
330
5
100
AcDbSymbolTableRecord
100
AcDbLinetypeTableRecord
  2
DIVIDE
 70
     0
  3
CADPAC LINETYPE
 72
    65
 73
     6
 40
6.913580246913625
 49
2.592592592592609
 74
     0
 49
-0.8641975308642032
 74
     0
 49
0.8641975308642032
 74
     0
 49
-0.8641975308642032
 74
     0
 49
0.8641975308642032
 74
     0
 49
-0.8641975308642032
 74
     0
  0
LTYPE
  5
3C
330
5
100
AcDbSymbolTableRecord
100
AcDbLinetypeTableRecord
  2
DIVIDE2
 70
     0
  3
CADPAC LINETYPE
 72
    65
 73
     6
 40
5.185185185185219
 49
1.944444444444457
 74
     0
 49
-0.6481481481481524
 74
     0
 49
0.6481481481481524
 74
     0
 49
-0.6481481481481524
 74
     0
 49
0.6481481481481524
 74
     0
 49
-0.6481481481481524
 74
     0
  0
LTYPE
  5
3D
330
5
100
AcDbSymbolTableRecord
100
AcDbLinetypeTableRecord
  2
BORDERX2
 70
     0
  3
CADPAC LINETYPE
 72
    65
 73
     6
 40
9.452160493827098
 49
2.700617283950599
 74
     0
 49
-1.3503086419753
 74
     0
 49
2.700617283950599
 74
     0
 49
-1.3503086419753
 74
     0
 49
0.0
 74
     0
 49
-1.3503086419753
 74
     0
  0
LTYPE
  5
3E
330
5
100
AcDbSymbolTableRecord
100
AcDbLinetypeTableRecord
  2
BORDER
 70
     0
  3
CADPAC LINETYPE
 72
    65
 73
     6
 40
7.561728395061678
 49
2.160493827160479
 74
     0
 49
-1.08024691358024
 74
     0
 49
2.160493827160479
 74
     0
 49
-1.08024691358024
 74
     0
 49
0.0
 74
     0
 49
-1.08024691358024
 74
     0
  0
LTYPE
  5
3F
330
5
100
AcDbSymbolTableRecord
100
AcDbLinetypeTableRecord
  2
BORDER2
 70
     0
  3
CADPAC LINETYPE
 72
    65
 73
     6
 40
5.617283950617221
 49
1.728395061728378
 74
     0
 49
-1.080246913580226
 74
     0
 49
0.6481481481481524
 74
     0
 49
-1.080246913580226
 74
     0
 49
0.0
 74
     0
 49
-1.08024691358024
 74
     0
  0
LTYPE
  5
40
330
5
100
AcDbSymbolTableRecord
100
AcDbLinetypeTableRecord
  2
PHANTOMX2
 70
     0
  3
CADPAC LINETYPE
 72
    65
 73
     6
 40
8.101851851851798
 49
2.700617283950599
 74
     0
 49
-1.08024691358024
 74
     0
 49
1.08024691358024
 74
     0
 49
-1.08024691358024
 74
     0
 49
1.08024691358024
 74
     0
 49
-1.08024691358024
 74
     0
  0
LTYPE
  5
41
330
5
100
AcDbSymbolTableRecord
100
AcDbLinetypeTableRecord
  2
PHANTOM
 70
     0
  3
CADPAC LINETYPE
 72
    65
 73
     6
 40
6.697530864197486
 49
2.160493827160479
 74
     0
 49
-1.08024691358024
 74
     0
 49
0.6481481481481438
 74
     0
 49
-1.08024691358024
 74
     0
 49
0.6481481481481438
 74
     0
 49
-1.08024691358024
 74
     0
  0
LTYPE
  5
42
330
5
100
AcDbSymbolTableRecord
100
AcDbLinetypeTableRecord
  2
PHANTOM2
 70
     0
  3
CADPAC LINETYPE
 72
    65
 73
     6
 40
5.725308641975271
 49
1.62037037037036
 74
     0
 49
-1.08024691358024
 74
     0
 49
0.4320987654320959
 74
     0
 49
-1.08024691358024
 74
     0
 49
0.4320987654320959
 74
     0
 49
-1.08024691358024
 74
     0
  0
LTYPE
  5
43
330
5
100
AcDbSymbolTableRecord
100
AcDbLinetypeTableRecord
  2
ACAD_ISO06W100
 70
     0
  3
CADPAC LINETYPE
 72
    65
 73
     8
 40
11.45061728395055
 49
5.18518518518519
 74
     0
 49
-1.080246913580226
 74
     0
 49
0.6481481481481524
 74
     0
 49
-1.080246913580226
 74
     0
 49
0.6481481481481524
 74
     0
 49
-1.080246913580226
 74
     0
 49
0.6481481481481524
 74
     0
 49
-1.080246913580226
 74
     0
  0
LTYPE
  5
44
330
5
100
AcDbSymbolTableRecord
100
AcDbLinetypeTableRecord
  2
ACAD_ISO13W100
 70
     0
  3
CADPAC LINETYPE
 72
    65
 73
     8
 40
8.641975308641918
 49
2.160493827160479
 74
     0
 49
-1.08024691358024
 74
     0
 49
2.160493827160479
 74
     0
 49
-1.08024691358024
 74
     0
 49
0.0
 74
     0
 49
-1.08024691358024
 74
     0
 49
0.0
 74
     0
 49
-1.08024691358024
 74
     0
  0
LTYPE
  5
45
330
5
100
AcDbSymbolTableRecord
100
AcDbLinetypeTableRecord
  2
ACAD_ISO14W100
 70
     0
  3
CADPAC LINETYPE
 72
    65
 73
     8
 40
6.481481481481438
 49
2.160493827160479
 74
     0
 49
-1.08024691358024
 74
     0
 49
0.0
 74
     0
 49
-1.08024691358024
 74
     0
 49
0.0
 74
     0
 49
-1.08024691358024
 74
     0
 49
0.0
 74
     0
 49
-1.08024691358024
 74
     0
  0
ENDTAB
  0
TABLE
  2
LAYER
  5
2
330
0
100
AcDbSymbolTable
 70
     9
  0
LAYER
  5
10
330
2
100
AcDbSymbolTableRecord
100
AcDbLayerTableRecord
  2
0
 70
     0
 62
     7
  6
CONTINUOUS
  0
LAYER
  5
46
330
2
100
AcDbSymbolTableRecord
100
AcDbLayerTableRecord
  2
LAYER0003
 70
     0
 62
     7
  6
CONTINUOUS
  0
LAYER
  5
47
330
2
100
AcDbSymbolTableRecord
100
AcDbLayerTableRecord
  2
LAYER0005
 70
     0
 62
     7
  6
CONTINUOUS
  0
LAYER
  5
48
330
2
100
AcDbSymbolTableRecord
100
AcDbLayerTableRecord
  2
LAYER0007
 70
     0
 62
     7
  6
CONTINUOUS
  0
LAYER
  5
49
330
2
100
AcDbSymbolTableRecord
100
AcDbLayerTableRecord
  2
LAYER0008
 70
     0
 62
     7
  6
CONTINUOUS
  0
LAYER
  5
4A
330
2
100
AcDbSymbolTableRecord
100
AcDbLayerTableRecord
  2
LAYER0009
 70
     0
 62
     7
  6
CONTINUOUS
  0
LAYER
  5
4B
330
2
100
AcDbSymbolTableRecord
100
AcDbLayerTableRecord
  2
LAYER0010
 70
     0
 62
     7
  6
CONTINUOUS
  0
LAYER
  5
4C
330
2
100
AcDbSymbolTableRecord
100
AcDbLayerTableRecord
  2
LAYER0012
 70
     0
 62
     7
  6
CONTINUOUS
  0
LAYER
  5
4D
330
2
100
AcDbSymbolTableRecord
100
AcDbLayerTableRecord
  2
LAYER0013
 70
     0
 62
     7
  6
CONTINUOUS
  0
ENDTAB
  0
TABLE
  2
STYLE
  5
3
330
0
100
AcDbSymbolTable
 70
     2
  0
STYLE
  5
11
330
3
100
AcDbSymbolTableRecord
100
AcDbTextStyleTableRecord
  2
STANDARD
 70
     0
 40
0.0
 41
1.0
 50
0.0
 71
     0
 42
0.2
  3
txt
  4

  0
STYLE
  5
5F
330
3
100
AcDbSymbolTableRecord
100
AcDbTextStyleTableRecord
  2
FDASTYLE0
 70
     0
 40
2.0
 41
0.7272727272727271
 50
0.0
 71
     0
 42
0.2
  3
txt.shx
  4
bigfont
  0
ENDTAB
  0
TABLE
  2
VIEW
  5
6
330
0
100
AcDbSymbolTable
 70
     0
  0
ENDTAB
  0
TABLE
  2
UCS
  5
7
330
0
100
AcDbSymbolTable
 70
     0
  0
ENDTAB
  0
TABLE
  2
APPID
  5
9
330
0
100
AcDbSymbolTable
 70
     2
  0
APPID
  5
12
330
9
100
AcDbSymbolTableRecord
100
AcDbRegAppTableRecord
  2
ACAD
 70
     0
  0
APPID
  5
2A
330
9
100
AcDbSymbolTableRecord
100
AcDbRegAppTableRecord
  2
DAFUSIONOUT
 70
     0
  0
ENDTAB
  0
TABLE
  2
DIMSTYLE
  5
A
330
0
100
AcDbSymbolTable
 70
     1
  0
DIMSTYLE
105
27
330
A
100
AcDbSymbolTableRecord
100
AcDbDimStyleTableRecord
  2
STANDARD
 70
     0
  3

  4

  5

  6

  7

 40
1.0
 41
0.18
 42
0.0625
 43
0.38
 44
0.18
 45
0.0
 46
0.0
 47
0.0
 48
0.0
140
0.18
141
0.09
142
0.0
143
25.4
144
1.0
145
0.0
146
1.0
147
0.09
 71
     0
 72
     0
 73
     1
 74
     1
 75
     0
 76
     0
 77
     0
 78
     0
170
     0
171
     2
172
     0
173
     0
174
     0
175
     0
176
     0
177
     0
178
     0
270
     2
271
     4
272
     4
273
     2
274
     2
340
11
275
     0
280
     0
281
     0
282
     0
283
     1
284
     0
285
     0
286
     0
287
     3
288
     0
  0
ENDTAB
  0
TABLE
  2
BLOCK_RECORD
  5
1
330
0
100
AcDbSymbolTable
 70
     3
  0
BLOCK_RECORD
  5
1F
330
1
100
AcDbSymbolTableRecord
100
AcDbBlockTableRecord
  2
*MODEL_SPACE
  0
BLOCK_RECORD
  5
1B
330
1
100
AcDbSymbolTableRecord
100
AcDbBlockTableRecord
  2
*PAPER_SPACE
  0
BLOCK_RECORD
  5
4F
330
1
100
AcDbSymbolTableRecord
100
AcDbBlockTableRecord
  2
DA_IMAGEDIMGROUP_1
  0
BLOCK_RECORD
  5
56
330
1
100
AcDbSymbolTableRecord
100
AcDbBlockTableRecord
  2
_OPEN30
  0
ENDTAB
  0
ENDSEC
  0
SECTION
  2
BLOCKS
  0
BLOCK
  5
20
330
1F
100
AcDbEntity
  8
0
100
AcDbBlockBegin
  2
*MODEL_SPACE
 70
     0
 71
     0
 10
0.0
 20
0.0
 30
0.0
  3
*MODEL_SPACE
  1

  0
ENDBLK
  5
21
330
1F
100
AcDbEntity
  8
0
100
AcDbBlockEnd
  0
BLOCK
  5
1C
330
1B
100
AcDbEntity
 67
     1
  8
0
100
AcDbBlockBegin
  2
*PAPER_SPACE
 70
     0
 71
     0
 10
0.0
 20
0.0
 30
0.0
  3
*PAPER_SPACE
  1

  0
ENDBLK
  5
1D
330
1B
100
AcDbEntity
 67
     1
  8
0
100
AcDbBlockEnd
  0
BLOCK
  5
50
330
4F
100
AcDbEntity
  8
0
100
AcDbBlockBegin
  2
DA_IMAGEDIMGROUP_1
 70
     0
 71
     0
 10
0.0
 20
0.0
 30
0.0
  3
DA_IMAGEDIMGROUP_1
  1

  0
LINE
  5
52
330
4F
100
AcDbEntity
  8
0
  6
CONTINUOUS
 62
     9
100
AcDbLine
 10
-10.39582126508446
 20
-3.719999999999999
 30
0.0
 11
-25.40419273242178
 21
-3.719999999999999
 31
0.0
  0
LINE
  5
53
330
4F
100
AcDbEntity
  8
0
  6
CONTINUOUS
 62
     9
100
AcDbLine
 10
-10.39582126508446
 20
0.2800000000000011
 30
0.0
 11
-25.40419273242178
 21
0.2800000000000011
 31
0.0
  0
LINE
  5
54
330
4F
100
AcDbEntity
  8
0
  6
CONTINUOUS
 62
     9
100
AcDbLine
 10
-24.90419273242178
 20
-3.719999999999999
 30
0.0
 11
-24.90419273242178
 21
0.2800000000000011
 31
0.0
  0
LINE
  5
55
330
4F
100
AcDbEntity
  8
0
  6
CONTINUOUS
 62
     9
100
AcDbLine
 10
-24.90419273242178
 20
16.41500000000001
 30
0.0
 11
-24.90419273242178
 21
0.2800000000000011
 31
0.0
  0
INSERT
  5
5C
330
4F
100
AcDbEntity
  8
0
 62
     9
100
AcDbBlockReference
  2
_OPEN30
 10
-24.90419273242178
 20
0.2800000000000011
 30
0.0
 41
1.500001393912182
 42
1.499994636989232
 50
270.0
  0
LINE
  5
5D
330
4F
100
AcDbEntity
  8
0
  6
CONTINUOUS
 62
     9
100
AcDbLine
 10
-24.90419273242178
 20
-6.219999999999999
 30
0.0
 11
-24.90419273242178
 21
-3.719999999999999
 31
0.0
  0
INSERT
  5
5E
330
4F
100
AcDbEntity
  8
0
 62
     9
100
AcDbBlockReference
  2
_OPEN30
 10
-24.90419273242178
 20
-3.719999999999999
 30
0.0
 41
1.500001393912182
 42
1.499994636989232
 50
90.0
  0
TEXT
  5
60
330
4F
100
AcDbEntity
  8
0
 62
     7
100
AcDbText
 10
-25.40419273242178
 20
8.055000000000007
 30
0.0
 40
2.0
  1
φ4
 50
90.0
 41
0.7272727272727271
  7
FDASTYLE0
 72
     5
 11
-25.40419273242178
 21
11.25500000000001
 31
0.0
100
AcDbText
  0
TEXT
  5
61
330
4F
100
AcDbEntity
  8
0
 62
     7
100
AcDbText
 10
-26.70419273242178
 20
11.75500000000001
 30
0.0
 40
1.3
  1
±0.2
 50
90.0
 41
0.7619047619047619
  7
FDASTYLE0
 72
     5
 11
-26.70419273242178
 21
15.91500000000001
 31
0.0
100
AcDbText
  0
ENDBLK
  5
51
330
4F
100
AcDbEntity
  8
0
100
AcDbBlockEnd
  0
BLOCK
  5
57
330
56
100
AcDbEntity
  8
0
100
AcDbBlockBegin
  2
_OPEN30
 70
     0
 71
     0
 10
0.0
 20
0.0
 30
0.0
  3
_OPEN30
  1

  0
LINE
  5
59
330
56
100
AcDbEntity
  8
0
  6
BYBLOCK
 62
     0
100
AcDbLine
 10
-1.0
 20
0.267949
 30
0.0
 11
0.0
 21
0.0
 31
0.0
  0
LINE
  5
5A
330
56
100
AcDbEntity
  8
0
  6
BYBLOCK
 62
     0
100
AcDbLine
 10
0.0
 20
0.0
 30
0.0
 11
-1.0
 21
-0.267949
 31
0.0
  0
LINE
  5
5B
330
56
100
AcDbEntity
  8
0
  6
BYBLOCK
 62
     0
100
AcDbLine
 10
0.0
 20
0.0
 30
0.0
 11
-1.0
 21
0.0
 31
0.0
  0
ENDBLK
  5
58
330
56
100
AcDbEntity
  8
0
100
AcDbBlockEnd
  0
ENDSEC
  0
SECTION
  2
ENTITIES
  0
LINE
  5
62
330
1F
100
AcDbEntity
  8
0
  6
CENTER
 62
     9
100
AcDbLine
 10
30.20417911638555
 20
-1.719999999999999
 30
0.0
 11
-15.86522108251237
 21
-1.719999999999999
 31
0.0
  0
LINE
  5
63
330
1F
100
AcDbEntity
  8
0
  6
CENTER
 62
     9
100
AcDbLine
 10
41.80222323804491
 20
-1.720000000006152
 30
0.0
 11
61.45419273243211
 21
-1.720000000006152
 31
0.0
  0
LINE
  5
64
330
1F
100
AcDbEntity
  8
0
  6
CENTER
 62
     9
100
AcDbLine
 10
51.67919273243211
 20
8.054999999993854
 30
0.0
 11
51.67919273243211
 21
-11.49500000001034
 31
0.0
  0
LINE
  5
65
330
1F
100
AcDbEntity
  8
0
  6
CENTER
 62
     9
100
AcDbLine
 10
-51.67919273242744
 20
-11.49500000000731
 30
0.0
 11
-51.67919273243211
 21
8.054999999992688
 31
0.0
  0
LINE
  5
66
330
1F
100
AcDbEntity
  8
0
  6
CENTER
 62
     9
100
AcDbLine
 10
-41.90419273243212
 20
-1.720000000007318
 30
0.0
 11
-61.45419273243211
 21
-1.720000000008696
 31
0.0
  0
CIRCLE
  5
67
330
1F
100
AcDbEntity
  8
0
  6
CONTINUOUS
 62
     9
100
AcDbCircle
 10
-45.67919273242178
 20
-1.720000000010202
 30
0.0
 40
1.0
  0
CIRCLE
  5
68
330
1F
100
AcDbEntity
  8
0
  6
CONTINUOUS
 62
     9
100
AcDbCircle
 10
-57.67919273242177
 20
-1.720000000010202
 30
0.0
 40
1.0
  0
LINE
  5
69
330
1F
100
AcDbEntity
  8
LAYER0010
  6
CONTINUOUS
 62
     3
100
AcDbLine
 10
-8.995821265084462
 20
0.2800000000000011
 30
0.0
 11
-8.995821265084462
 21
-3.719999999999999
 31
0.0
  0
LINE
  5
6A
330
1F
100
AcDbEntity
  8
LAYER0010
  6
CONTINUOUS
 62
     3
100
AcDbLine
 10
-8.695821265084462
 20
-3.719999999999999
 30
0.0
 11
-8.695821265084462
 21
0.2800000000000011
 31
0.0
  0
LINE
  5
6B
330
1F
100
AcDbEntity
  8
LAYER0005
  6
CONTINUOUS
 62
     3
100
AcDbLine
 10
-8.395821265084457
 20
-2.719999999999999
 30
0.0
 11
-8.565821265084459
 21
-2.719999999999999
 31
0.0
  0
ARC
  5
6C
330
1F
100
AcDbEntity
  8
LAYER0005
  6
CONTINUOUS
 62
     3
100
AcDbCircle
 10
-14.66582231412622
 20
-2.520000089406906
 30
0.0
 40
0.2
100
AcDbArc
 50
180.0
 51
270.0
  0
LINE
  5
6D
330
1F
100
AcDbEntity
  8
LAYER0005
  6
CONTINUOUS
 62
     3
100
AcDbLine
 10
-9.995821265084462
 20
-2.720000089406895
 30
0.0
 11
-14.66582231412622
 21
-2.720000089406895
 31
0.0
  0
LINE
  5
6E
330
1F
100
AcDbEntity
  8
LAYER0005
  6
CONTINUOUS
 62
     3
100
AcDbLine
 10
-14.86582231412622
 20
-2.520000089406906
 30
0.0
 11
-14.86582231412622
 21
-0.9200000845641085
 31
0.0
  0
ARC
  5
6F
330
1F
100
AcDbEntity
  8
LAYER0005
  6
CONTINUOUS
 62
     3
100
AcDbCircle
 10
-14.66582231412621
 20
-0.9200000845641085
 30
0.0
 40
0.2
100
AcDbArc
 50
89.99999999999999
 51
180.0
  0
LINE
  5
70
330
1F
100
AcDbEntity
  8
LAYER0005
  6
CONTINUOUS
 62
     3
100
AcDbLine
 10
-8.565821265084459
 20
-0.7200000894069092
 30
0.0
 11
-8.395821265084457
 21
-0.7200000894069092
 31
0.0
  0
LINE
  5
71
330
1F
100
AcDbEntity
  8
LAYER0005
  6
CONTINUOUS
 62
     3
100
AcDbLine
 10
-14.66582231412621
 20
-0.720000089406895
 30
0.0
 11
-9.995821265084462
 21
-0.7200000894069092
 31
0.0
  0
LINE
  5
72
330
1F
100
AcDbEntity
  8
LAYER0009
  6
CONTINUOUS
 62
     3
100
AcDbLine
 10
-8.565821265084459
 20
-3.719999999999999
 30
0.0
 11
-8.565821265084459
 21
0.2800000000000011
 31
0.0
  0
LINE
  5
73
330
1F
100
AcDbEntity
  8
LAYER0009
  6
CONTINUOUS
 62
     3
100
AcDbLine
 10
-8.565821265084459
 20
0.2800000000000011
 30
0.0
 11
-8.995821265084462
 21
0.2800000000000011
 31
0.0
  0
LINE
  5
74
330
1F
100
AcDbEntity
  8
LAYER0009
  6
CONTINUOUS
 62
     3
100
AcDbLine
 10
-8.565821265084459
 20
-3.719999999999999
 30
0.0
 11
-8.995821265084462
 21
-3.719999999999999
 31
0.0
  0
LINE
  5
75
330
1F
100
AcDbEntity
  8
LAYER0009
  6
CONTINUOUS
 62
     3
100
AcDbLine
 10
-9.095821265084464
 20
0.2800000000000011
 30
0.0
 11
-9.895821265084461
 21
0.2800000000000011
 31
0.0
  0
LINE
  5
76
330
1F
100
AcDbEntity
  8
LAYER0009
  6
CONTINUOUS
 62
     3
100
AcDbLine
 10
-9.095821265084467
 20
-3.719999999999999
 30
0.0
 11
-9.895821265084461
 21
-3.719999999999999
 31
0.0
  0
LINE
  5
77
330
1F
100
AcDbEntity
  8
LAYER0007
  6
CONTINUOUS
 62
     3
100
AcDbLine
 10
30.90419273243789
 20
5.280000089529693
 30
0.0
 11
30.90419273243789
 21
4.98000008952971
 31
0.0
  0
LINE
  5
78
330
1F
100
AcDbEntity
  8
LAYER0007
  6
CONTINUOUS
 62
     3
100
AcDbLine
 10
30.90419273243789
 20
-8.720000089529691
 30
0.0
 11
30.90419273243789
 21
-8.420000089529708
 31
0.0
  0
LINE
  5
79
330
1F
100
AcDbEntity
  8
LAYER0013
  6
CONTINUOUS
 62
     3
100
AcDbLine
 10
29.20417911638555
 20
4.472853089020958
 30
0.0
 11
29.20417911638555
 21
-7.912853089020956
 31
0.0
  0
LINE
  5
7A
330
1F
100
AcDbEntity
  8
LAYER0013
  6
CONTINUOUS
 62
     3
100
AcDbLine
 10
28.60417911638555
 20
-8.51285308902095
 30
0.0
 11
28.00417911638555
 21
-8.51285308902095
 31
0.0
  0
ARC
  5
7B
330
1F
100
AcDbEntity
  8
LAYER0013
  6
CONTINUOUS
 62
     3
100
AcDbCircle
 10
28.60417911638555
 20
-7.912853089020956
 30
0.0
 40
0.6
100
AcDbArc
 50
270.0
 51
360.0
  0
LINE
  5
7C
330
1F
100
AcDbEntity
  8
LAYER0013
  6
CONTINUOUS
 62
     3
100
AcDbLine
 10
28.00417911638555
 20
-6.056664488513505
 30
0.0
 11
28.50417911638555
 21
-6.056664488513505
 31
0.0
  0
LINE
  5
7D
330
1F
100
AcDbEntity
  8
LAYER0013
  6
CONTINUOUS
 62
     3
100
AcDbLine
 10
28.00417911638555
 20
-7.467463885405792
 30
0.0
 11
28.50417911638555
 21
-7.467463885405792
 31
0.0
  0
LINE
  5
7E
330
1F
100
AcDbEntity
  8
LAYER0013
  6
CONTINUOUS
 62
     3
100
AcDbLine
 10
28.50417911638555
 20
-6.056664488513505
 30
0.0
 11
28.50417911638555
 21
-7.467463885405792
 31
0.0
  0
LINE
  5
7F
330
1F
100
AcDbEntity
  8
LAYER0013
  6
CONTINUOUS
 62
     3
100
AcDbLine
 10
28.00417911638555
 20
-1.719999999999999
 30
0.0
 11
28.00417911638555
 21
-8.51285308902095
 31
0.0
  0
ARC
  5
80
330
1F
100
AcDbEntity
  8
LAYER0013
  6
CONTINUOUS
 62
     3
100
AcDbCircle
 10
28.60417911638555
 20
4.472853089020958
 30
0.0
 40
0.6
100
AcDbArc
 50
0.0
 51
90.0
  0
CIRCLE
  5
81
330
1F
100
AcDbEntity
  8
LAYER0013
  6
CONTINUOUS
 62
     3
100
AcDbCircle
 10
51.679192732435
 20
-1.719999999999999
 30
0.0
 40
8.774999999997114
  0
LINE
  5
82
330
1F
100
AcDbEntity
  8
LAYER0013
  6
CONTINUOUS
 62
     3
100
AcDbLine
 10
28.00417911638584
 20
-8.919999999998893
 30
0.0
 11
28.00417911638575
 21
-8.61999999999891
 31
0.0
  0
LINE
  5
83
330
1F
100
AcDbEntity
  8
LAYER0013
  6
CONTINUOUS
 62
     3
100
AcDbLine
 10
28.00417911638547
 20
5.524202590308946
 30
0.0
 11
28.00417911638575
 21
-8.61999999999891
 31
0.0
  0
LINE
  5
84
330
1F
100
AcDbEntity
  8
LAYER0013
  6
CONTINUOUS
 62
     3
100
AcDbLine
 10
27.40418562483162
 20
-9.069997631119279
 30
0.0
 11
28.00417911638547
 21
-8.964202590308858
 31
0.0
  0
LINE
  5
85
330
1F
100
AcDbEntity
  8
LAYER0013
  6
CONTINUOUS
 62
     3
100
AcDbLine
 10
28.60417911638555
 20
5.072853089020953
 30
0.0
 11
28.00417911638555
 21
5.072853089020953
 31
0.0
  0
CIRCLE
  5
86
330
1F
100
AcDbEntity
  8
LAYER0013
  6
CONTINUOUS
 62
     3
100
AcDbCircle
 10
-51.67919273242178
 20
-1.720000000010202
 30
0.0
 40
3.45
  0
CIRCLE
  5
87
330
1F
100
AcDbEntity
  8
LAYER0013
  6
CONTINUOUS
 62
     3
100
AcDbCircle
 10
-51.67919273242178
 20
-1.720000000010202
 30
0.0
 40
1.0
  0
CIRCLE
  5
88
330
1F
100
AcDbEntity
  8
LAYER0013
  6
CONTINUOUS
 62
     3
100
AcDbCircle
 10
-51.67919273242178
 20
-1.720000000010202
 30
0.0
 40
2.0
  0
LINE
  5
89
330
1F
100
AcDbEntity
  8
LAYER0013
  6
CONTINUOUS
 62
     3
100
AcDbLine
 10
-9.995821265084462
 20
0.1800000000000068
 30
0.0
 11
-9.895821265084461
 21
0.2800000000000011
 31
0.0
  0
LINE
  5
8A
330
1F
100
AcDbEntity
  8
LAYER0013
  6
CONTINUOUS
 62
     3
100
AcDbLine
 10
-9.995821265084462
 20
-3.620000000000005
 30
0.0
 11
-9.895821265084461
 21
-3.719999999999999
 31
0.0
  0
LINE
  5
8B
330
1F
100
AcDbEntity
  8
LAYER0013
  6
CONTINUOUS
 62
     3
100
AcDbLine
 10
-9.995821265084462
 20
0.1800000000000068
 30
0.0
 11
-9.995821265084462
 21
-3.620000000000005
 31
0.0
  0
LINE
  5
8C
330
1F
100
AcDbEntity
  8
LAYER0013
  6
CONTINUOUS
 62
     3
100
AcDbLine
 10
-8.995821265084462
 20
-3.620000000000005
 30
0.0
 11
-9.095821265084464
 21
-3.719999999999999
 31
0.0
  0
LINE
  5
8D
330
1F
100
AcDbEntity
  8
LAYER0013
  6
CONTINUOUS
 62
     3
100
AcDbLine
 10
-9.095821265084464
 20
0.2800000000000011
 30
0.0
 11
-8.995821265084462
 21
0.1800000000000068
 31
0.0
  0
LINE
  5
8E
330
1F
100
AcDbEntity
  8
0
  6
CONTINUOUS
 62
     3
100
AcDbLine
 10
52.779192732435
 20
4.78000000006746
 30
0.0
 11
52.779192732435
 21
5.280000000067645
 31
0.0
  0
LINE
  5
8F
330
1F
100
AcDbEntity
  8
0
  6
CONTINUOUS
 62
     3
100
AcDbLine
 10
50.57919273243501
 20
4.78000000006746
 30
0.0
 11
50.579192732435
 21
5.280000000067645
 31
0.0
  0
LINE
  5
90
330
1F
100
AcDbEntity
  8
0
  6
CONTINUOUS
 62
     3
100
AcDbLine
 10
50.579192732435
 20
5.280000000067645
 30
0.0
 11
52.779192732435
 21
5.280000000067645
 31
0.0
  0
LINE
  5
91
330
1F
100
AcDbEntity
  8
0
  6
CONTINUOUS
 62
     3
100
AcDbLine
 10
50.57919273243501
 20
4.78000000006746
 30
0.0
 11
52.779192732435
 21
4.78000000006746
 31
0.0
  0
LINE
  5
92
330
1F
100
AcDbEntity
  8
0
  6
CONTINUOUS
 62
     3
100
AcDbLine
 10
52.779192732435
 20
-8.220000000077874
 30
0.0
 11
52.779192732435
 21
-8.720000000078059
 31
0.0
  0
LINE
  5
93
330
1F
100
AcDbEntity
  8
0
  6
CONTINUOUS
 62
     3
100
AcDbLine
 10
50.57919273243501
 20
-8.220000000077874
 30
0.0
 11
52.779192732435
 21
-8.220000000077874
 31
0.0
  0
LINE
  5
94
330
1F
100
AcDbEntity
  8
0
  6
CONTINUOUS
 62
     3
100
AcDbLine
 10
50.57919273243501
 20
-8.220000000077874
 30
0.0
 11
50.579192732435
 21
-8.720000000078059
 31
0.0
  0
LINE
  5
95
330
1F
100
AcDbEntity
  8
0
  6
CONTINUOUS
 62
     3
100
AcDbLine
 10
50.579192732435
 20
-8.720000000078059
 30
0.0
 11
52.779192732435
 21
-8.720000000078059
 31
0.0
  0
LINE
  5
96
330
1F
100
AcDbEntity
  8
0
  6
CONTINUOUS
 62
     3
100
AcDbLine
 10
26.40418535220695
 20
7.055000000000007
 30
0.0
 11
-6.095822218758801
 21
7.055000000000007
 31
0.0
  0
LINE
  5
97
330
1F
100
AcDbEntity
  8
0
  6
CONTINUOUS
 62
     3
100
AcDbLine
 10
26.40418535220695
 20
-10.49500000000001
 30
0.0
 11
-6.095822218758801
 21
-10.49500000000001
 31
0.0
  0
ARC
  5
98
330
1F
100
AcDbEntity
  8
0
  6
CONTINUOUS
 62
     3
100
AcDbCircle
 10
-6.095822218758801
 20
5.555000000000007
 30
0.0
 40
1.5
100
AcDbArc
 50
90.0
 51
180.0
  0
ARC
  5
99
330
1F
100
AcDbEntity
  8
0
  6
CONTINUOUS
 62
     3
100
AcDbCircle
 10
-6.095822218758801
 20
-8.995000000000005
 30
0.0
 40
1.5
100
AcDbArc
 50
180.0
 51
270.0
  0
LINE
  5
9A
330
1F
100
AcDbEntity
  8
0
  6
CONTINUOUS
 62
     3
100
AcDbLine
 10
-7.595822218758801
 20
5.555000000000007
 30
0.0
 11
-7.595822218758801
 21
-8.995000000000005
 31
0.0
  0
ARC
  5
9B
330
1F
100
AcDbEntity
  8
0
  6
CONTINUOUS
 62
     3
100
AcDbCircle
 10
47.57896843846366
 20
5.811187538433657
 30
0.0
 40
0.2
100
AcDbArc
 50
118.5653149722138
 51
219.9999999999985
  0
ARC
  5
9C
330
1F
100
AcDbEntity
  8
0
  6
CONTINUOUS
 62
     3
100
AcDbCircle
 10
44.97441733185945
 20
3.625709665499045
 30
0.0
 40
0.2
100
AcDbArc
 50
39.9999999999989
 51
141.4346850278032
  0
ARC
  5
9D
330
1F
100
AcDbEntity
  8
0
  6
CONTINUOUS
 62
     3
100
AcDbCircle
 10
43.55042437851421
 20
-4.450155682076826
 30
0.0
 40
0.2
100
AcDbArc
 50
198.5653149722097
 51
300.0000000000015
  0
ARC
  5
9E
330
1F
100
AcDbEntity
  8
0
  6
CONTINUOUS
 62
     3
100
AcDbCircle
 10
45.25042437851445
 20
-7.394642054943788
 30
0.0
 40
0.2
100
AcDbArc
 50
120.0000000000015
 51
221.4346850277998
  0
ARC
  5
9F
330
1F
100
AcDbEntity
  8
0
  6
CONTINUOUS
 62
     3
100
AcDbCircle
 10
55.7794170264001
 20
-9.251187538446203
 30
0.0
 40
0.2
100
AcDbArc
 50
298.5653149722092
 51
399.9999999999989
  0
ARC
  5
A0
330
1F
100
AcDbEntity
  8
0
  6
CONTINUOUS
 62
     3
100
AcDbCircle
 10
58.38396813300445
 20
-7.065709665511761
 30
0.0
 40
0.2
100
AcDbArc
 50
219.9999999999989
 51
321.4346850277993
  0
ARC
  5
A1
330
1F
100
AcDbEntity
  8
0
  6
CONTINUOUS
 62
     3
100
AcDbCircle
 10
59.80796108635006
 20
1.010155682064422
 30
0.0
 40
0.2
100
AcDbArc
 50
18.56531497220906
 51
120.0000000000005
  0
ARC
  5
A2
330
1F
100
AcDbEntity
  8
0
  6
CONTINUOUS
 62
     3
100
AcDbCircle
 10
58.10796108634985
 20
3.954642054931398
 30
0.0
 40
0.2
100
AcDbArc
 50
300.0000000000016
 51
401.4346850277987
  0
LINE
  5
A3
330
1F
100
AcDbEntity
  8
0
  6
CONTINUOUS
 62
     3
100
AcDbLine
 10
57.74558461121254
 20
-6.616058575335345
 30
0.0
 11
58.23075924438065
 21
-7.194267187449057
 31
0.0
  0
LINE
  5
A4
330
1F
100
AcDbEntity
  8
0
  6
CONTINUOUS
 62
     3
100
AcDbLine
 10
55.44745128185545
 20
-8.544421404394797
 30
0.0
 11
55.9326259150239
 21
-9.122630016508893
 31
0.0
  0
LINE
  5
A5
330
1F
100
AcDbEntity
  8
0
  6
CONTINUOUS
 62
     3
100
AcDbLine
 10
57.74558461121252
 20
-6.616058575335359
 30
0.0
 11
55.44745128185545
 21
-8.544421404394797
 31
0.0
  0
ARC
  5
A6
330
1F
100
AcDbEntity
  8
0
  6
CONTINUOUS
 62
     3
100
AcDbCircle
 10
51.67919273243211
 20
-1.72000000001033
 30
0.0
 40
8.199999999999999
100
AcDbArc
 50
299.4597140348146
 51
320.5402859652334
  0
ARC
  5
A7
330
1F
100
AcDbEntity
  8
0
  6
CONTINUOUS
 62
     3
100
AcDbCircle
 10
51.67919273243211
 20
-1.72000000001033
 30
0.0
 40
8.199999999999999
100
AcDbArc
 50
199.4597140347525
 51
220.5402859651713
  0
ARC
  5
A8
330
1F
100
AcDbEntity
  8
0
  6
CONTINUOUS
 62
     3
100
AcDbCircle
 10
51.67919273243211
 20
-1.72000000001033
 30
0.0
 40
8.199999999999999
100
AcDbArc
 50
19.45971403479699
 51
40.54028596521575
  0
ARC
  5
A9
330
1F
100
AcDbEntity
  8
0
  6
CONTINUOUS
 62
     3
100
AcDbCircle
 10
51.67919273243211
 20
-1.72000000001033
 30
0.0
 40
8.199999999999999
100
AcDbArc
 50
119.4597140347349
 51
140.5402859651537
  0
LINE
  5
AA
330
1F
100
AcDbEntity
  8
0
  6
CONTINUOUS
 62
     3
100
AcDbLine
 10
50.42919273243211
 20
5.522927584882396
 30
0.0
 11
50.42919273243211
 21
4.630000000067454
 31
0.0
  0
LINE
  5
AB
330
1F
100
AcDbEntity
  8
0
  6
CONTINUOUS
 62
     3
100
AcDbLine
 10
51.67919273243211
 20
4.630000000067454
 30
0.0
 11
50.42919273243211
 21
4.630000000067454
 31
0.0
  0
LINE
  5
AC
330
1F
100
AcDbEntity
  8
0
  6
CONTINUOUS
 62
     3
100
AcDbLine
 10
52.92919273243788
 20
5.522927584881401
 30
0.0
 11
52.92919273243788
 21
4.630000000067454
 31
0.0
  0
LINE
  5
AD
330
1F
100
AcDbEntity
  8
0
  6
CONTINUOUS
 62
     3
100
AcDbLine
 10
51.67919273243211
 20
4.630000000067454
 30
0.0
 11
52.92919273243788
 21
4.630000000067454
 31
0.0
  0
LINE
  5
AE
330
1F
100
AcDbEntity
  8
0
  6
CONTINUOUS
 62
     3
100
AcDbLine
 10
52.92919273243788
 20
-8.962927584902062
 30
0.0
 11
52.92919273243788
 21
-8.070000000077869
 31
0.0
  0
LINE
  5
AF
330
1F
100
AcDbEntity
  8
0
  6
CONTINUOUS
 62
     3
100
AcDbLine
 10
51.67919273243788
 20
-8.070000000077869
 30
0.0
 11
52.92919273243788
 21
-8.070000000077869
 31
0.0
  0
LINE
  5
B0
330
1F
100
AcDbEntity
  8
0
  6
CONTINUOUS
 62
     3
100
AcDbLine
 10
50.42919273243211
 20
-8.962927584903056
 30
0.0
 11
50.42919273243211
 21
-8.070000000077869
 31
0.0
  0
LINE
  5
B1
330
1F
100
AcDbEntity
  8
0
  6
CONTINUOUS
 62
     3
100
AcDbLine
 10
51.67919273243788
 20
-8.070000000077869
 30
0.0
 11
50.42919273243211
 21
-8.070000000077869
 31
0.0
  0
LINE
  5
B2
330
1F
100
AcDbEntity
  8
0
  6
CONTINUOUS
 62
     3
100
AcDbLine
 10
45.61280085365458
 20
3.176058575325016
 30
0.0
 11
45.12762622048647
 21
3.754267187438742
 31
0.0
  0
LINE
  5
B3
330
1F
100
AcDbEntity
  8
0
  6
CONTINUOUS
 62
     3
100
AcDbLine
 10
45.61280085365459
 20
3.17605857532503
 30
0.0
 11
47.91093418301167
 21
5.104421404384468
 31
0.0
  0
LINE
  5
B4
330
1F
100
AcDbEntity
  8
0
  6
CONTINUOUS
 62
     3
100
AcDbLine
 10
47.91093418301167
 20
5.104421404384468
 30
0.0
 11
47.42575954984322
 21
5.682630016498564
 31
0.0
  0
LINE
  5
B5
330
1F
100
AcDbEntity
  8
0
  6
CONTINUOUS
 62
     3
100
AcDbLine
 10
57.55428707138066
 20
3.404038105677515
 30
0.0
 11
58.20796108634855
 21
3.78143697418146
 31
0.0
  0
LINE
  5
B6
330
1F
100
AcDbEntity
  8
0
  6
CONTINUOUS
 62
     3
100
AcDbLine
 10
57.55428707138067
 20
3.4040381056775
 30
0.0
 11
59.05428707138047
 21
0.8059618943240849
 31
0.0
  0
LINE
  5
B7
330
1F
100
AcDbEntity
  8
0
  6
CONTINUOUS
 62
     3
100
AcDbLine
 10
59.05428707138047
 20
0.8059618943240849
 30
0.0
 11
59.70796108634878
 21
1.183360762828286
 31
0.0
  0
LINE
  5
B8
330
1F
100
AcDbEntity
  8
0
  6
CONTINUOUS
 62
     3
100
AcDbLine
 10
45.80409839348646
 20
-6.844038105687858
 30
0.0
 11
45.15042437851857
 21
-7.221436974191803
 31
0.0
  0
LINE
  5
B9
330
1F
100
AcDbEntity
  8
0
  6
CONTINUOUS
 62
     3
100
AcDbLine
 10
45.80409839348644
 20
-6.844038105687844
 30
0.0
 11
44.30409839348664
 21
-4.245961894334428
 31
0.0
  0
LINE
  5
BA
330
1F
100
AcDbEntity
  8
0
  6
CONTINUOUS
 62
     3
100
AcDbLine
 10
44.30409839348664
 20
-4.245961894334428
 30
0.0
 11
43.65042437851832
 21
-4.62336076283863
 31
0.0
  0
ARC
  5
BB
330
1F
100
AcDbEntity
  8
0
  6
CONTINUOUS
 62
     3
100
AcDbCircle
 10
51.67919273243211
 20
-1.72000000001033
 30
0.0
 40
7.35
100
AcDbArc
 50
99.79177432463465
 51
260.2082256753654
  0
ARC
  5
BC
330
1F
100
AcDbEntity
  8
0
  6
CONTINUOUS
 62
     3
100
AcDbCircle
 10
51.67919273243211
 20
-1.72000000001033
 30
0.0
 40
7.35
100
AcDbArc
 50
279.7917743246803
 51
440.2082256753197
  0
ARC
  5
BD
330
1F
100
AcDbEntity
  8
0
  6
CONTINUOUS
 62
     3
100
AcDbCircle
 10
52.97919273243212
 20
4.430000000072511
 30
0.0
 40
0.5
100
AcDbArc
 50
270.0
 51
360.0
  0
ARC
  5
BE
330
1F
100
AcDbEntity
  8
0
  6
CONTINUOUS
 62
     3
100
AcDbCircle
 10
50.37919273243212
 20
4.430000000072511
 30
0.0
 40
0.5
100
AcDbArc
 50
180.0
 51
270.0
  0
LINE
  5
BF
330
1F
100
AcDbEntity
  8
0
  6
CONTINUOUS
 62
     3
100
AcDbLine
 10
50.37919273243212
 20
3.930000000072511
 30
0.0
 11
52.97919273243212
 21
3.930000000072511
 31
0.0
  0
ARC
  5
C0
330
1F
100
AcDbEntity
  8
0
  6
CONTINUOUS
 62
     3
100
AcDbCircle
 10
52.97919273243212
 20
-7.870000000074697
 30
0.0
 40
0.5
100
AcDbArc
 50
0.0
 51
90.0
  0
LINE
  5
C1
330
1F
100
AcDbEntity
  8
0
  6
CONTINUOUS
 62
     3
100
AcDbLine
 10
50.37919273243212
 20
-7.370000000074697
 30
0.0
 11
52.97919273243212
 21
-7.370000000074697
 31
0.0
  0
ARC
  5
C2
330
1F
100
AcDbEntity
  8
0
  6
CONTINUOUS
 62
     3
100
AcDbCircle
 10
50.37919273243212
 20
-7.870000000074697
 30
0.0
 40
0.5
100
AcDbArc
 50
90.0
 51
180.0
  0
LINE
  5
C3
330
1F
100
AcDbEntity
  8
0
  6
CONTINUOUS
 62
     3
100
AcDbLine
 10
47.92919273243211
 20
-5.470000000004845
 30
0.0
 11
46.95444786104053
 21
-5.470000000004845
 31
0.0
  0
LINE
  5
C4
330
1F
100
AcDbEntity
  8
0
  6
CONTINUOUS
 62
     3
100
AcDbLine
 10
47.92919273243211
 20
-6.444744871396438
 30
0.0
 11
47.92919273243211
 21
-5.470000000004845
 31
0.0
  0
LINE
  5
C5
330
1F
100
AcDbEntity
  8
0
  6
CONTINUOUS
 62
     3
100
AcDbLine
 10
47.92919273243211
 20
-4.970000000004845
 30
0.0
 11
47.92919273243211
 21
-3.995255128613266
 31
0.0
  0
LINE
  5
C6
330
1F
100
AcDbEntity
  8
0
  6
CONTINUOUS
 62
     3
100
AcDbLine
 10
48.42919273243211
 20
-3.995255128613266
 30
0.0
 11
48.42919273243211
 21
-4.970000000004845
 31
0.0
  0
LINE
  5
C7
330
1F
100
AcDbEntity
  8
0
  6
CONTINUOUS
 62
     3
100
AcDbLine
 10
48.42919273243211
 20
-5.470000000004845
 30
0.0
 11
48.42919273243211
 21
-6.444744871396438
 31
0.0
  0
LINE
  5
C8
330
1F
100
AcDbEntity
  8
0
  6
CONTINUOUS
 62
     3
100
AcDbLine
 10
46.95444786104053
 20
-4.970000000004845
 30
0.0
 11
47.92919273243211
 21
-4.970000000004845
 31
0.0
  0
LINE
  5
C9
330
1F
100
AcDbEntity
  8
0
  6
CONTINUOUS
 62
     3
100
AcDbLine
 10
49.4039376038237
 20
-5.470000000004845
 30
0.0
 11
48.42919273243211
 21
-5.470000000004845
 31
0.0
  0
LINE
  5
CA
330
1F
100
AcDbEntity
  8
0
  6
CONTINUOUS
 62
     3
100
AcDbLine
 10
48.42919273243211
 20
-4.970000000004845
 30
0.0
 11
49.4039376038237
 21
-4.970000000004845
 31
0.0
  0
CIRCLE
  5
CB
330
1F
100
AcDbEntity
  8
0
  6
CONTINUOUS
 62
     3
100
AcDbCircle
 10
48.17919273243211
 20
-5.220000000004845
 30
0.0
 40
1.25
  0
CIRCLE
  5
CC
330
1F
100
AcDbEntity
  8
0
  6
CONTINUOUS
 62
     3
100
AcDbCircle
 10
-51.67919273242178
 20
-1.720000000010202
 30
0.0
 40
8.775
  0
CIRCLE
  5
CD
330
1F
100
AcDbEntity
  8
0
  6
CONTINUOUS
 62
     3
100
AcDbCircle
 10
-51.67919273242178
 20
-1.720000000010202
 30
0.0
 40
3.0
  0
CIRCLE
  5
CE
330
1F
100
AcDbEntity
  8
0
  6
CONTINUOUS
 62
     3
100
AcDbCircle
 10
-45.67919273242178
 20
-1.720000000010202
 30
0.0
 40
0.7849999999999966
  0
CIRCLE
  5
CF
330
1F
100
AcDbEntity
  8
0
  6
CONTINUOUS
 62
     3
100
AcDbCircle
 10
-57.67919273242177
 20
-1.720000000010202
 30
0.0
 40
0.7849999999999966
  0
LINE
  5
D0
330
1F
100
AcDbEntity
  8
0
  6
CONTINUOUS
 62
     3
100
AcDbLine
 10
-8.995821265084462
 20
0.1799999999999926
 30
0.0
 11
-8.995821265084462
 21
-3.620000000000005
 31
0.0
  0
LINE
  5
D1
330
1F
100
AcDbEntity
  8
LAYER0008
  6
CONTINUOUS
 62
     3
100
AcDbLine
 10
53.47919273243212
 20
4.430000000072553
 30
0.0
 11
53.47919273243212
 21
4.572853089021962
 31
0.0
  0
ARC
  5
D2
330
1F
100
AcDbEntity
  8
LAYER0008
  6
CONTINUOUS
 62
     3
100
AcDbCircle
 10
53.97919273243212
 20
4.572853089021962
 30
0.0
 40
0.5
100
AcDbArc
 50
69.92294559915118
 51
180.0
  0
LINE
  5
D3
330
1F
100
AcDbEntity
  8
LAYER0008
  6
CONTINUOUS
 62
     3
100
AcDbLine
 10
49.87919273243212
 20
4.572853089019858
 30
0.0
 11
49.87919273243212
 21
4.430000000072553
 31
0.0
  0
ARC
  5
D4
330
1F
100
AcDbEntity
  8
LAYER0008
  6
CONTINUOUS
 62
     3
100
AcDbCircle
 10
49.37919273243212
 20
4.572853089019858
 30
0.0
 40
0.5
100
AcDbArc
 50
0.0
 51
110.077054400901
  0
LINE
  5
D5
330
1F
100
AcDbEntity
  8
LAYER0008
  6
CONTINUOUS
 62
     3
100
AcDbLine
 10
53.47919273243212
 20
-7.870000000074739
 30
0.0
 11
53.47919273243212
 21
-8.012853089024148
 31
0.0
  0
ARC
  5
D6
330
1F
100
AcDbEntity
  8
LAYER0008
  6
CONTINUOUS
 62
     3
100
AcDbCircle
 10
51.679192732435
 20
-1.719999999999999
 30
0.0
 40
7.200000000000003
100
AcDbArc
 50
290.0770544008427
 51
429.9229455991514
  0
ARC
  5
D7
330
1F
100
AcDbEntity
  8
LAYER0008
  6
CONTINUOUS
 62
     3
100
AcDbCircle
 10
53.97919273243212
 20
-8.012853089024148
 30
0.0
 40
0.5
100
AcDbArc
 50
180.0
 51
290.0770544008488
  0
LINE
  5
D8
330
1F
100
AcDbEntity
  8
LAYER0008
  6
CONTINUOUS
 62
     3
100
AcDbLine
 10
49.87919273243212
 20
-8.012853089022045
 30
0.0
 11
49.87919273243212
 21
-7.870000000074739
 31
0.0
  0
ARC
  5
D9
330
1F
100
AcDbEntity
  8
LAYER0008
  6
CONTINUOUS
 62
     3
100
AcDbCircle
 10
49.37919273243212
 20
-8.012853089022045
 30
0.0
 40
0.5
100
AcDbArc
 50
249.922945599099
 51
360.0
  0
ARC
  5
DA
330
1F
100
AcDbEntity
  8
LAYER0008
  6
CONTINUOUS
 62
     3
100
AcDbCircle
 10
51.679192732435
 20
-1.719999999999999
 30
0.0
 40
7.200000000000003
100
AcDbArc
 50
110.077054400901
 51
249.922945599105
  0
LINE
  5
DB
330
1F
100
AcDbEntity
  8
LAYER0003
  6
CONTINUOUS
 62
     3
100
AcDbLine
 10
-8.245821265084459
 20
1.279999999999987
 30
0.0
 11
-7.595822218758801
 21
1.280000000000001
 31
0.0
  0
LINE
  5
DC
330
1F
100
AcDbEntity
  8
LAYER0003
  6
CONTINUOUS
 62
     3
100
AcDbLine
 10
-8.245821265084459
 20
-4.719999999999985
 30
0.0
 11
-7.595822218758801
 21
-4.719999999999999
 31
0.0
  0
LINE
  5
DD
330
1F
100
AcDbEntity
  8
LAYER0003
  6
CONTINUOUS
 62
     3
100
AcDbLine
 10
-8.245821265084459
 20
1.279999999999987
 30
0.0
 11
-8.395821265084457
 21
1.129999999999996
 31
0.0
  0
LINE
  5
DE
330
1F
100
AcDbEntity
  8
LAYER0003
  6
CONTINUOUS
 62
     3
100
AcDbLine
 10
-8.395821265084461
 20
-4.569999999999993
 30
0.0
 11
-8.245821265084459
 21
-4.719999999999985
 31
0.0
  0
LINE
  5
DF
330
1F
100
AcDbEntity
  8
LAYER0003
  6
CONTINUOUS
 62
     3
100
AcDbLine
 10
-8.395821265084457
 20
1.129999999999996
 30
0.0
 11
-8.395821265084457
 21
-4.569999999999993
 31
0.0
  0
LINE
  5
E0
330
1F
100
AcDbEntity
  8
LAYER0012
  6
CONTINUOUS
 62
     3
100
AcDbLine
 10
26.40418535220693
 20
7.055000000000973
 30
0.0
 11
27.20418535220694
 21
7.055000000000973
 31
0.0
  0
LINE
  5
E1
330
1F
100
AcDbEntity
  8
LAYER0012
  6
CONTINUOUS
 62
     3
100
AcDbLine
 10
27.20417911638586
 20
-10.49499999999894
 30
0.0
 11
26.40418535220742
 21
-10.49499999999902
 31
0.0
  0
LINE
  5
E2
330
1F
100
AcDbEntity
  8
LAYER0012
  6
CONTINUOUS
 62
     3
100
AcDbLine
 10
26.40427585608912
 20
-10.49499999999902
 30
0.0
 11
26.40407970639328
 21
7.05499999997339
 31
0.0
  0
LINE
  5
E3
330
1F
100
AcDbEntity
  8
LAYER0012
  6
CONTINUOUS
 62
     3
100
AcDbLine
 10
27.40417911638582
 20
6.85500000000097
 30
0.0
 11
27.40417911638582
 21
-10.29499999999894
 31
0.0
  0
LINE
  5
E4
330
1F
100
AcDbEntity
  8
LAYER0012
  6
CONTINUOUS
 62
     3
100
AcDbLine
 10
28.00417911638584
 20
-8.964202590308787
 30
0.0
 11
28.00417911638584
 21
-4.719999999998905
 31
0.0
  0
ARC
  5
E5
330
1F
100
AcDbEntity
  8
LAYER0012
  6
CONTINUOUS
 62
     3
100
AcDbCircle
 10
27.20417911638582
 20
-10.29499999999894
 30
0.0
 40
0.2
100
AcDbArc
 50
270.0000000000124
 51
360.0
  0
ARC
  5
E6
330
1F
100
AcDbEntity
  8
LAYER0012
  6
CONTINUOUS
 62
     3
100
AcDbCircle
 10
27.20418535220694
 20
6.85500000000097
 30
0.0
 40
0.2
100
AcDbArc
 50
0.0000000000010178
 51
90.0
  0
LINE
  5
E7
330
1F
100
AcDbEntity
  8
LAYER0012
  6
CONTINUOUS
 62
     3
100
AcDbLine
 10
27.40418562483162
 20
5.629997631119366
 30
0.0
 11
28.00417911638547
 21
5.524202590308946
 31
0.0
  0
LINE
  5
E8
330
1F
100
AcDbEntity
  8
LAYER0007
  6
CONTINUOUS
 62
     3
100
AcDbLine
 10
28.00417911638555
 20
5.280000089529693
 30
0.0
 11
30.90419273243789
 21
5.280000089529693
 31
0.0
  0
LINE
  5
E9
330
1F
100
AcDbEntity
  8
LAYER0007
  6
CONTINUOUS
 62
     3
100
AcDbLine
 10
30.90419273243789
 20
4.98000008952971
 30
0.0
 11
28.92480650117197
 21
4.98000008952971
 31
0.0
  0
LINE
  5
EA
330
1F
100
AcDbEntity
  8
LAYER0007
  6
CONTINUOUS
 62
     3
100
AcDbLine
 10
28.00417911638555
 20
-8.720000089529691
 30
0.0
 11
30.90419273243789
 21
-8.720000089529691
 31
0.0
  0
LINE
  5
EB
330
1F
100
AcDbEntity
  8
LAYER0007
  6
CONTINUOUS
 62
     3
100
AcDbLine
 10
30.90419273243789
 20
-8.420000089529708
 30
0.0
 11
28.92480650117197
 21
-8.420000089529708
 31
0.0
  0
LINE
  5
EC
330
1F
100
AcDbEntity
  8
LAYER0013
  6
CENTER
 62
     9
100
AcDbLine
 10
-45.67919273242178
 20
-0.2200000000102023
 30
0.0
 11
-45.67919273242178
 21
-3.220000000010202
 31
0.0
  0
LINE
  5
ED
330
1F
100
AcDbEntity
  8
LAYER0013
  6
CENTER
 62
     9
100
AcDbLine
 10
-57.67919273243849
 20
-0.2200000000159585
 30
0.0
 11
-57.67919273243706
 21
-3.220000000015951
 31
0.0
  0
LINE
  5
EE
330
1F
100
AcDbEntity
  8
LAYER0013
  6
CONTINUOUS
 62
     9
100
AcDbLine
 10
-14.86582231412622
 20
-0.4200000845641085
 30
0.0
 11
-14.86582231412622
 21
15.55500000000001
 31
0.0
  0
LINE
  5
EF
330
1F
100
AcDbEntity
  8
LAYER0013
  6
CONTINUOUS
 62
     9
100
AcDbLine
 10
-7.595822218758801
 20
6.055000000000007
 30
0.0
 11
-7.595822218758801
 21
15.55500000000001
 31
0.0
  0
LINE
  5
F0
330
1F
100
AcDbEntity
  8
LAYER0013
  6
CONTINUOUS
 62
     9
100
AcDbLine
 10
28.00417911638547
 20
6.024202590308946
 30
0.0
 11
28.00417911638547
 21
15.55500000000001
 31
0.0
  0
LINE
  5
F1
330
1F
100
AcDbEntity
  8
LAYER0013
  6
CONTINUOUS
 62
     9
100
AcDbLine
 10
30.90419273243789
 20
5.780000089529693
 30
0.0
 11
30.90419273243789
 21
15.55500000000001
 31
0.0
  0
LINE
  5
F2
330
1F
100
AcDbEntity
  8
LAYER0013
  6
CONTINUOUS
 62
     9
100
AcDbLine
 10
28.00417911638547
 20
15.05500000000001
 30
0.0
 11
30.90419273243789
 21
15.05500000000001
 31
0.0
  0
LINE
  5
F3
330
1F
100
AcDbEntity
  8
LAYER0013
  6
CONTINUOUS
 62
     9
100
AcDbLine
 10
29.20417911638555
 20
4.972853089020958
 30
0.0
 11
29.20417911638555
 21
11.55500000000001
 31
0.0
  0
LINE
  5
F4
330
1F
100
AcDbEntity
  8
LAYER0013
  6
CONTINUOUS
 62
     9
100
AcDbLine
 10
28.00417911638547
 20
6.024202590308946
 30
0.0
 11
28.00417911638547
 21
12.55499999997339
 31
0.0
  0
LINE
  5
F5
330
1F
100
AcDbEntity
  8
LAYER0013
  6
CONTINUOUS
 62
     9
100
AcDbLine
 10
28.00417911638547
 20
11.05500000000001
 30
0.0
 11
29.20417911638555
 21
11.05500000000001
 31
0.0
  0
LINE
  5
F6
330
1F
100
AcDbEntity
  8
LAYER0013
  6
CONTINUOUS
 62
     9
100
AcDbLine
 10
31.40419273243788
 20
-8.420000089529708
 30
0.0
 11
36.40419273243789
 21
-8.420000089529708
 31
0.0
  0
LINE
  5
F7
330
1F
100
AcDbEntity
  8
LAYER0013
  6
CONTINUOUS
 62
     9
100
AcDbLine
 10
31.40419273243788
 20
4.98000008952971
 30
0.0
 11
36.40419273243789
 21
4.98000008952971
 31
0.0
  0
LINE
  5
F8
330
1F
100
AcDbEntity
  8
LAYER0013
  6
CONTINUOUS
 62
     9
100
AcDbLine
 10
-8.395821265084457
 20
1.629999999999996
 30
0.0
 11
-8.395821265084457
 21
11.55500000000001
 31
0.0
  0
LINE
  5
F9
330
1F
100
AcDbEntity
  8
LAYER0013
  6
CONTINUOUS
 62
     9
100
AcDbLine
 10
-7.595822218758801
 20
6.055000000000007
 30
0.0
 11
-7.595822218758801
 21
12.55500000000001
 31
0.0
  0
LINE
  5
FA
330
1F
100
AcDbEntity
  8
LAYER0013
  6
CONTINUOUS
 62
     9
100
AcDbLine
 10
-8.395821265084457
 20
11.05500000002662
 30
0.0
 11
-7.595822218758801
 21
11.05500000002662
 31
0.0
  0
LINE
  5
FB
330
1F
100
AcDbEntity
  8
LAYER0013
  6
CONTINUOUS
 62
     9
100
AcDbLine
 10
-15.16582231412622
 20
-2.720000089406895
 30
0.0
 11
-20.40419273242178
 21
-2.720000089406895
 31
0.0
  0
LINE
  5
FC
330
1F
100
AcDbEntity
  8
LAYER0013
  6
CONTINUOUS
 62
     9
100
AcDbLine
 10
-15.16582231412621
 20
-0.720000089406895
 30
0.0
 11
-20.40419273242178
 21
-0.720000089406895
 31
0.0
  0
LINE
  5
FD
330
1F
100
AcDbEntity
  8
LAYER0013
  6
CONTINUOUS
 62
     9
100
AcDbLine
 10
-19.90419273242178
 20
-2.720000089406895
 30
0.0
 11
-19.90419273242178
 21
-0.720000089406895
 31
0.0
  0
LINE
  5
FE
330
1F
100
AcDbEntity
  8
LAYER0013
  6
CONTINUOUS
 62
     9
100
AcDbLine
 10
-8.745821265084459
 20
-4.719999999999985
 30
0.0
 11
-30.40419273242178
 21
-4.719999999999985
 31
0.0
  0
LINE
  5
FF
330
1F
100
AcDbEntity
  8
LAYER0013
  6
CONTINUOUS
 62
     9
100
AcDbLine
 10
-8.745821265084459
 20
1.279999999999987
 30
0.0
 11
-30.40419273242178
 21
1.279999999999987
 31
0.0
  0
LINE
  5
100
330
1F
100
AcDbEntity
  8
LAYER0013
  6
CONTINUOUS
 62
     9
100
AcDbLine
 10
-6.595822218758801
 20
-10.49500000000001
 30
0.0
 11
-35.40419273242178
 21
-10.49500000000001
 31
0.0
  0
LINE
  5
101
330
1F
100
AcDbEntity
  8
LAYER0013
  6
CONTINUOUS
 62
     9
100
AcDbLine
 10
-6.595822218758801
 20
7.055000000000007
 30
0.0
 11
-35.40419273242178
 21
7.055000000000007
 31
0.0
  0
LINE
  5
102
330
1F
100
AcDbEntity
  8
LAYER0013
  6
CONTINUOUS
 62
     9
100
AcDbLine
 10
-57.67919273243874
 20
0.2799999999897977
 30
0.0
 11
-57.67919273243874
 21
11.55500000000001
 31
0.0
  0
LINE
  5
103
330
1F
100
AcDbEntity
  8
LAYER0013
  6
CONTINUOUS
 62
     9
100
AcDbLine
 10
-45.67919273242178
 20
0.2799999999897977
 30
0.0
 11
-45.67919273242178
 21
11.55500000000001
 31
0.0
  0
LINE
  5
104
330
1F
100
AcDbEntity
  8
LAYER0013
  6
CONTINUOUS
 62
     9
100
AcDbLine
 10
30.17200147723329
 20
-15.49500000000001
 30
0.0
 11
42.90419273243789
 21
-15.49500000000001
 31
0.0
  0
LINE
  5
105
330
1F
100
AcDbEntity
  8
LAYER0013
  6
CONTINUOUS
 62
     9
100
AcDbLine
 10
-9.995821265084462
 20
-4.120000000000005
 30
0.0
 11
-9.995821265084462
 21
-15.99500000000001
 31
0.0
  0
LINE
  5
106
330
1F
100
AcDbEntity
  8
LAYER0013
  6
CONTINUOUS
 62
     9
100
AcDbLine
 10
-7.595822218758801
 20
-9.495000000000005
 30
0.0
 11
-7.595822218758801
 21
-15.99500000000001
 31
0.0
  0
LINE
  5
107
330
1F
100
AcDbEntity
  8
LAYER0013
  6
CONTINUOUS
 62
     9
100
AcDbLine
 10
-9.995821265084462
 20
-15.49500000000001
 30
0.0
 11
-7.595822218758801
 21
-15.49500000000001
 31
0.0
  0
LINE
  5
108
330
1F
100
AcDbEntity
  8
LAYER0013
  6
CONTINUOUS
 62
     9
100
AcDbLine
 10
-14.86582231412622
 20
15.05500000000001
 30
0.0
 11
-7.595822218758801
 21
15.05500000000001
 31
0.0
  0
INSERT
  5
109
330
1F
100
AcDbEntity
  8
LAYER0013
 62
     9
100
AcDbBlockReference
  2
_OPEN30
 10
-14.86582231412622
 20
15.05500000000001
 30
0.0
 41
1.500001393912182
 42
1.499994636989232
 50
180.0
  0
INSERT
  5
10A
330
1F
100
AcDbEntity
  8
LAYER0013
 62
     9
100
AcDbBlockReference
  2
_OPEN30
 10
-7.595822218758801
 20
15.05500000000001
 30
0.0
 41
1.500001393912182
 42
1.499994636989232
 50
360.0
  0
LINE
  5
10B
330
1F
100
AcDbEntity
  8
LAYER0013
  6
CONTINUOUS
 62
     9
100
AcDbLine
 10
-7.595822218758801
 20
15.05500000000001
 30
0.0
 11
28.00417911638547
 21
15.05500000000001
 31
0.0
  0
INSERT
  5
10C
330
1F
100
AcDbEntity
  8
LAYER0013
 62
     9
100
AcDbBlockReference
  2
_OPEN30
 10
-7.595822218758801
 20
15.05500000000001
 30
0.0
 41
1.500001393912182
 42
1.499994636989232
 50
180.0
  0
INSERT
  5
10D
330
1F
100
AcDbEntity
  8
LAYER0013
 62
     9
100
AcDbBlockReference
  2
_OPEN30
 10
28.00417911638547
 20
15.05500000000001
 30
0.0
 41
1.500001393912182
 42
1.499994636989232
 50
360.0
  0
LINE
  5
10E
330
1F
100
AcDbEntity
  8
LAYER0013
  6
CONTINUOUS
 62
     9
100
AcDbLine
 10
35.90419273243789
 20
-8.420000089529708
 30
0.0
 11
35.90419273243789
 21
4.98000008952971
 31
0.0
  0
INSERT
  5
10F
330
1F
100
AcDbEntity
  8
LAYER0013
 62
     9
100
AcDbBlockReference
  2
_OPEN30
 10
35.90419273243789
 20
-8.420000089529708
 30
0.0
 41
1.500001393912182
 42
1.499994636989232
 50
270.0
  0
INSERT
  5
110
330
1F
100
AcDbEntity
  8
LAYER0013
 62
     9
100
AcDbBlockReference
  2
_OPEN30
 10
35.90419273243789
 20
4.98000008952971
 30
0.0
 41
1.500001393912182
 42
1.499994636989232
 50
90.0
  0
LINE
  5
111
330
1F
100
AcDbEntity
  8
LAYER0013
  6
CONTINUOUS
 62
     9
100
AcDbLine
 10
-29.90419273242178
 20
-4.719999999999985
 30
0.0
 11
-29.90419273242178
 21
1.279999999999987
 31
0.0
  0
INSERT
  5
112
330
1F
100
AcDbEntity
  8
LAYER0013
 62
     9
100
AcDbBlockReference
  2
_OPEN30
 10
-29.90419273242178
 20
-4.719999999999985
 30
0.0
 41
1.500001393912182
 42
1.499994636989232
 50
270.0
  0
INSERT
  5
113
330
1F
100
AcDbEntity
  8
LAYER0013
 62
     9
100
AcDbBlockReference
  2
_OPEN30
 10
-29.90419273242178
 20
1.279999999999987
 30
0.0
 41
1.500001393912182
 42
1.499994636989232
 50
90.0
  0
LINE
  5
114
330
1F
100
AcDbEntity
  8
LAYER0013
  6
CONTINUOUS
 62
     9
100
AcDbLine
 10
-34.90419273242178
 20
-10.49500000000001
 30
0.0
 11
-34.90419273242178
 21
7.055000000000007
 31
0.0
  0
INSERT
  5
115
330
1F
100
AcDbEntity
  8
LAYER0013
 62
     9
100
AcDbBlockReference
  2
_OPEN30
 10
-34.90419273242178
 20
-10.49500000000001
 30
0.0
 41
1.500001393912182
 42
1.499994636989232
 50
270.0
  0
INSERT
  5
116
330
1F
100
AcDbEntity
  8
LAYER0013
 62
     9
100
AcDbBlockReference
  2
_OPEN30
 10
-34.90419273242178
 20
7.055000000000007
 30
0.0
 41
1.500001393912182
 42
1.499994636989232
 50
90.0
  0
LINE
  5
117
330
1F
100
AcDbEntity
  8
LAYER0013
  6
CONTINUOUS
 62
     9
100
AcDbLine
 10
-57.67919273243874
 20
11.05500000000001
 30
0.0
 11
-45.67919273242178
 21
11.05500000000001
 31
0.0
  0
INSERT
  5
118
330
1F
100
AcDbEntity
  8
LAYER0013
 62
     9
100
AcDbBlockReference
  2
_OPEN30
 10
-57.67919273243874
 20
11.05500000000001
 30
0.0
 41
1.500001393912182
 42
1.499994636989232
 50
180.0
  0
INSERT
  5
119
330
1F
100
AcDbEntity
  8
LAYER0013
 62
     9
100
AcDbBlockReference
  2
_OPEN30
 10
-45.67919273242178
 20
11.05500000000001
 30
0.0
 41
1.500001393912182
 42
1.499994636989232
 50
360.0
  0
LINE
  5
11A
330
1F
100
AcDbEntity
  8
LAYER0013
  6
CONTINUOUS
 62
     9
100
AcDbLine
 10
47.60830261187872
 20
-6.332018196912852
 30
0.0
 11
42.90419273243789
 21
-15.49500000000001
 31
0.0
  0
INSERT
  5
11B
330
1F
100
AcDbEntity
  8
LAYER0013
 62
     9
100
AcDbBlockReference
  2
_OPEN30
 10
47.60830261187872
 20
-6.332018196912852
 30
0.0
 41
1.500001393912182
 42
1.499994636989232
 50
62.82485225543094
  0
LINE
  5
11C
330
1F
100
AcDbEntity
  8
LAYER0013
  6
CONTINUOUS
 62
     9
100
AcDbLine
 10
-19.90419273242178
 20
18.49500000000001
 30
0.0
 11
-19.90419273242178
 21
-0.720000089406895
 31
0.0
  0
INSERT
  5
11D
330
1F
100
AcDbEntity
  8
LAYER0013
 62
     9
100
AcDbBlockReference
  2
_OPEN30
 10
-19.90419273242178
 20
-0.720000089406895
 30
0.0
 41
1.500001393912182
 42
1.499994636989232
 50
270.0
  0
LINE
  5
11E
330
1F
100
AcDbEntity
  8
LAYER0013
  6
CONTINUOUS
 62
     9
100
AcDbLine
 10
-19.90419273242178
 20
-5.220000089406895
 30
0.0
 11
-19.90419273242178
 21
-2.720000089406895
 31
0.0
  0
INSERT
  5
11F
330
1F
100
AcDbEntity
  8
LAYER0013
 62
     9
100
AcDbBlockReference
  2
_OPEN30
 10
-19.90419273242178
 20
-2.720000089406895
 30
0.0
 41
1.500001393912182
 42
1.499994636989232
 50
90.0
  0
LINE
  5
120
330
1F
100
AcDbEntity
  8
LAYER0013
  6
CONTINUOUS
 62
     9
100
AcDbLine
 10
-0.3469322187588002
 20
11.05500000002662
 30
0.0
 11
-7.595822218758801
 21
11.05500000002662
 31
0.0
  0
INSERT
  5
121
330
1F
100
AcDbEntity
  8
LAYER0013
 62
     9
100
AcDbBlockReference
  2
_OPEN30
 10
-7.595822218758801
 20
11.05500000002662
 30
0.0
 41
1.500001393912182
 42
1.499994636989232
 50
180.0
  0
LINE
  5
122
330
1F
100
AcDbEntity
  8
LAYER0013
  6
CONTINUOUS
 62
     9
100
AcDbLine
 10
-10.89582126508446
 20
11.05500000002662
 30
0.0
 11
-8.395821265084457
 21
11.05500000002662
 31
0.0
  0
INSERT
  5
123
330
1F
100
AcDbEntity
  8
LAYER0013
 62
     9
100
AcDbBlockReference
  2
_OPEN30
 10
-8.395821265084457
 20
11.05500000002662
 30
0.0
 41
1.500001393912182
 42
1.499994636989232
 50
360.0
  0
LINE
  5
124
330
1F
100
AcDbEntity
  8
LAYER0013
  6
CONTINUOUS
 62
     9
100
AcDbLine
 10
20.75528911638547
 20
11.05500000000001
 30
0.0
 11
28.00417911638547
 21
11.05500000000001
 31
0.0
  0
INSERT
  5
125
330
1F
100
AcDbEntity
  8
LAYER0013
 62
     9
100
AcDbBlockReference
  2
_OPEN30
 10
28.00417911638547
 20
11.05500000000001
 30
0.0
 41
1.500001393912182
 42
1.499994636989232
 50
360.0
  0
LINE
  5
126
330
1F
100
AcDbEntity
  8
LAYER0013
  6
CONTINUOUS
 62
     9
100
AcDbLine
 10
31.70417911638555
 20
11.05500000000001
 30
0.0
 11
29.20417911638555
 21
11.05500000000001
 31
0.0
  0
INSERT
  5
127
330
1F
100
AcDbEntity
  8
LAYER0013
 62
     9
100
AcDbBlockReference
  2
_OPEN30
 10
29.20417911638555
 20
11.05500000000001
 30
0.0
 41
1.500001393912182
 42
1.499994636989232
 50
180.0
  0
LINE
  5
128
330
1F
100
AcDbEntity
  8
LAYER0013
  6
CONTINUOUS
 62
     9
100
AcDbLine
 10
33.40419273243789
 20
15.05500000000001
 30
0.0
 11
30.90419273243789
 21
15.05500000000001
 31
0.0
  0
INSERT
  5
129
330
1F
100
AcDbEntity
  8
LAYER0013
 62
     9
100
AcDbBlockReference
  2
_OPEN30
 10
30.90419273243789
 20
15.05500000000001
 30
0.0
 41
1.500001393912182
 42
1.499994636989232
 50
180.0
  0
LINE
  5
12A
330
1F
100
AcDbEntity
  8
LAYER0013
  6
CONTINUOUS
 62
     9
100
AcDbLine
 10
-0.3469322187588002
 20
-15.49500000000001
 30
0.0
 11
-7.595822218758801
 21
-15.49500000000001
 31
0.0
  0
INSERT
  5
12B
330
1F
100
AcDbEntity
  8
LAYER0013
 62
     9
100
AcDbBlockReference
  2
_OPEN30
 10
-7.595822218758801
 20
-15.49500000000001
 30
0.0
 41
1.500001393912182
 42
1.499994636989232
 50
180.0
  0
LINE
  5
12C
330
1F
100
AcDbEntity
  8
LAYER0013
  6
CONTINUOUS
 62
     9
100
AcDbLine
 10
-12.49582126508446
 20
-15.49500000000001
 30
0.0
 11
-9.995821265084462
 21
-15.49500000000001
 31
0.0
  0
INSERT
  5
12D
330
1F
100
AcDbEntity
  8
LAYER0013
 62
     9
100
AcDbBlockReference
  2
_OPEN30
 10
-9.995821265084462
 20
-15.49500000000001
 30
0.0
 41
1.500001393912182
 42
1.499994636989232
 50
360.0
  0
TEXT
  5
12E
330
1F
100
AcDbEntity
  8
LAYER0013
 62
     7
100
AcDbText
 10
-13.63082226644251
 20
15.55500000000001
 30
0.0
 40
2.0
  1
7.3
 41
0.8000000000000002
  7
FDASTYLE0
 72
     5
 11
-8.830822266442509
 21
15.55500000000001
 31
0.0
100
AcDbText
  0
TEXT
  5
12F
330
1F
100
AcDbEntity
  8
LAYER0013
 62
     7
100
AcDbText
 10
7.004178448813334
 20
15.55500000000001
 30
0.0
 40
2.0
  1
35.6
 41
0.7999999999999999
  7
FDASTYLE0
 72
     5
 11
13.40417844881333
 21
15.55500000000001
 31
0.0
100
AcDbText
  0
TEXT
  5
130
330
1F
100
AcDbEntity
  8
LAYER0013
 62
     7
100
AcDbText
 10
27.05418592441168
 20
15.55500000000001
 30
0.0
 40
2.0
  1
2.9
 41
0.7999999999999995
  7
FDASTYLE0
 72
     5
 11
31.85418592441167
 21
15.55500000000001
 31
0.0
100
AcDbText
  0
TEXT
  5
131
330
1F
100
AcDbEntity
  8
LAYER0013
 62
     7
100
AcDbText
 10
21.25528911638547
 20
11.55500000000001
 30
0.0
 40
2.0
  1
1.2
 41
0.8000000000000002
  7
FDASTYLE0
 72
     5
 11
26.05528911638547
 21
11.55500000000001
 31
0.0
100
AcDbText
  0
TEXT
  5
132
330
1F
100
AcDbEntity
  8
LAYER0013
 62
     7
100
AcDbText
 10
35.40419273243789
 20
-4.920000000000002
 30
0.0
 40
2.0
  1
13.4
 50
90.0
 41
0.8000000000000007
  7
FDASTYLE0
 72
     5
 11
35.40419273243789
 21
1.480000000000004
 31
0.0
100
AcDbText
  0
TEXT
  5
133
330
1F
100
AcDbEntity
  8
LAYER0013
 62
     7
100
AcDbText
 10
-5.646932218758801
 20
11.55500000002662
 30
0.0
 40
2.0
  1
0.8
 41
0.8000000000000002
  7
FDASTYLE0
 72
     5
 11
-0.8469322187588002
 21
11.55500000002662
 31
0.0
100
AcDbText
  0
TEXT
  5
134
330
1F
100
AcDbEntity
  8
LAYER0013
 62
     7
100
AcDbText
 10
-20.40419273242178
 20
8.055000000000007
 30
0.0
 40
2.0
  1
φ2
 50
90.0
 41
0.7272727272727271
  7
FDASTYLE0
 72
     5
 11
-20.40419273242178
 21
11.25500000000001
 31
0.0
100
AcDbText
  0
TEXT
  5
135
330
1F
100
AcDbEntity
  8
LAYER0013
 62
     7
100
AcDbText
 10
-21.70419273242178
 20
11.75500000000001
 30
0.0
 40
1.3
  1
-0.005
 50
90.0
 41
0.7999999999999997
  7
FDASTYLE0
 72
     5
 11
-21.70419273242178
 21
17.99500000000001
 31
0.0
100
AcDbText
  0
TEXT
  5
136
330
1F
100
AcDbEntity
  8
LAYER0013
 62
     7
100
AcDbText
 10
-20.30419273242178
 20
11.75500000000001
 30
0.0
 40
1.3
  1
-0.010
 50
90.0
 41
0.7999999999999997
  7
FDASTYLE0
 72
     5
 11
-20.30419273242178
 21
17.99500000000001
 31
0.0
100
AcDbText
  0
TEXT
  5
137
330
1F
100
AcDbEntity
  8
LAYER0013
 62
     7
100
AcDbText
 10
-30.40419273242178
 20
-6.17
 30
0.0
 40
2.0
  1
φ6
 50
90.0
 41
0.7272727272727279
  7
FDASTYLE0
 72
     5
 11
-30.40419273242178
 21
-2.969999999999997
 31
0.0
100
AcDbText
  0
TEXT
  5
138
330
1F
100
AcDbEntity
  8
LAYER0013
 62
     7
100
AcDbText
 10
-31.70419273242178
 20
-2.469999999999997
 30
0.0
 40
1.3
  1
+0.03
 50
90.0
 41
0.7999999999999999
  7
FDASTYLE0
 72
     5
 11
-31.70419273242178
 21
2.730000000000002
 31
0.0
100
AcDbText
  0
TEXT
  5
139
330
1F
100
AcDbEntity
  8
LAYER0013
 62
     7
100
AcDbText
 10
-30.30419273242178
 20
-2.469999999999997
 30
0.0
 40
1.3
  1
 0
 50
90.0
 41
0.7999999999999993
  7
FDASTYLE0
 72
     5
 11
-30.30419273242178
 21
-0.3899999999999988
 31
0.0
100
AcDbText
  0
TEXT
  5
13A
330
1F
100
AcDbEntity
  8
LAYER0013
 62
     7
100
AcDbText
 10
-35.40419273242178
 20
-8.850000000000005
 30
0.0
 40
2.0
  1
φ17.55
 50
90.0
 41
0.7741935483870972
  7
FDASTYLE0
 72
     5
 11
-35.40419273242178
 21
0.75
 31
0.0
100
AcDbText
  0
TEXT
  5
13B
330
1F
100
AcDbEntity
  8
LAYER0013
 62
     7
100
AcDbText
 10
-36.70419273242178
 20
1.249999999999996
 30
0.0
 40
1.3
  1
±0.2
 50
90.0
 41
0.7619047619047624
  7
FDASTYLE0
 72
     5
 11
-36.70419273242178
 21
5.41
 31
0.0
100
AcDbText
  0
TEXT
  5
13C
330
1F
100
AcDbEntity
  8
LAYER0013
 62
     7
100
AcDbText
 10
-53.27919273243026
 20
11.55500000000001
 30
0.0
 40
2.0
  1
12
 41
0.8000000000000007
  7
FDASTYLE0
 72
     5
 11
-50.07919273243026
 21
11.55500000000001
 31
0.0
100
AcDbText
  0
TEXT
  5
13D
330
1F
100
AcDbEntity
  8
LAYER0013
 62
     7
100
AcDbText
 10
30.92200147723329
 20
-14.99500000000001
 30
0.0
 40
2.0
  1
（＋）ＭＡＲＫ
 41
0.6666666666666669
  7
FDASTYLE0
 72
     5
 11
42.12200147723329
 21
-14.99500000000001
 31
0.0
100
AcDbText
  0
TEXT
  5
13E
330
1F
100
AcDbEntity
  8
LAYER0013
 62
     7
100
AcDbText
 10
-5.646932218758801
 20
-14.99500000000001
 30
0.0
 40
2.0
  1
2.4
 41
0.8000000000000002
  7
FDASTYLE0
 72
     5
 11
-0.8469322187588002
 21
-14.99500000000001
 31
0.0
100
AcDbText
  0
LINE
  5
13F
330
1F
100
AcDbEntity
  8
0
  6
CONTINUOUS
 62
     9
100
AcDbLine
 10
-57.83421807526386
 20
-2.48954021538344
 30
0.0
 11
-60.45419273242178
 21
-15.49500000000001
 31
0.0
  0
INSERT
  5
140
330
1F
100
AcDbEntity
  8
0
 62
     9
100
AcDbBlockReference
  2
_OPEN30
 10
-57.83421807526386
 20
-2.48954021538344
 30
0.0
 41
1.500001393912182
 42
1.499994636989232
 50
78.61010138177939
  0
LINE
  5
141
330
1F
100
AcDbEntity
  8
0
  6
CONTINUOUS
 62
     9
100
AcDbLine
 10
-60.45419273242178
 20
-15.49500000000001
 30
0.0
 11
-37.93848910906115
 21
-15.49500000000001
 31
0.0
  0
TEXT
  5
142
330
1F
100
AcDbEntity
  8
0
 62
     7
100
AcDbText
 10
-58.45419273242178
 20
-14.99500000000001
 30
0.0
 40
2.0
  1
2-Ｍ2（Ｐ＝0.4）
 41
0.7333333333333334
  7
FDASTYLE0
 72
     5
 11
-40.85419273242178
 21
-14.99500000000001
 31
0.0
100
AcDbText
  0
TEXT
  5
143
330
1F
100
AcDbEntity
  8
0
 62
     7
100
AcDbText
 10
-58.45419273242178
 20
-17.99500000000001
 30
0.0
 40
2.0
  1
ＤＥＰＴＨ　1.8ＭＡＸ
 41
0.6956521739130437
  7
FDASTYLE0
 72
     5
 11
-39.25419273242178
 21
-17.99500000000001
 31
0.0
100
AcDbText
  0
INSERT
  5
144
330
1F
100
AcDbEntity
  8
0
  6
CONTINUOUS
100
AcDbBlockReference
  2
DA_IMAGEDIMGROUP_1
 10
0.0
 20
0.0
 30
0.0
  0
VIEWPORT
  5
4E
330
1B
100
AcDbEntity
 67
     1
  8
0
100
AcDbViewport
 10
0.0
 20
0.25
 30
0.0
 40
368.7251563945927
 41
109.47
 68
     1
 69
     1
1001
ACAD
1000
MVIEW
1002
{
1070
    16
1010
0.0
1020
0.0
1030
0.0
1010
0.0
1020
0.0
1030
1.0
1040
0.0
1040
109.47
1040
0.0
1040
0.25
1040
50.0
1040
0.0
1040
0.0
1070
     0
1070
   100
1070
     0
1070
     1
1070
     0
1070
     0
1070
     0
1070
     0
1040
0.0
1040
0.0
1040
0.0
1040
0.5
1040
0.5
1040
0.0
1040
0.0
1070
     0
1002
{
1002
}
1002
}
  0
ENDSEC
  0
SECTION
  2
OBJECTS
  0
DICTIONARY
  5
C
330
0
100
AcDbDictionary
  3
ACAD_GROUP
350
D
  3
ACAD_LAYOUT
350
1A
  3
ACAD_MLINESTYLE
350
17
  3
ACAD_PLOTSETTINGS
350
19
  3
ACDBHEADERROUNDTRIPXREC
350
145
  0
DICTIONARY
  5
D
102
{ACAD_REACTORS
330
C
102
}
330
C
100
AcDbDictionary
  0
DICTIONARY
  5
1A
102
{ACAD_REACTORS
330
C
102
}
330
C
100
AcDbDictionary
  0
DICTIONARY
  5
17
102
{ACAD_REACTORS
330
C
102
}
330
C
100
AcDbDictionary
  3
STANDARD
350
18
  0
DICTIONARY
  5
19
102
{ACAD_REACTORS
330
C
102
}
330
C
100
AcDbDictionary
  0
DICTIONARY
  5
145
102
{ACAD_REACTORS
330
C
102
}
330
C
100
AcDbDictionary
  3
CEPSNTYPE
350
14E
  3
DIMSTYLEDATA
350
164
  3
FINGERPRINTGUID
350
14F
  3
HYPERLINKBASE
350
148
  3
INSUNITS
350
14D
  3
LAYOUTDICT
350
14A
  3
LWETCUNION
350
14C
  3
PLOTSETDICT
350
14B
  3
PSVPSCALE
350
151
  3
PUCSBASE
350
154
  3
PUCSORGBACK
350
15A
  3
PUCSORGBOTTOM
350
156
  3
PUCSORGFRONT
350
159
  3
PUCSORGLEFT
350
157
  3
PUCSORGRIGHT
350
158
  3
PUCSORGTOP
350
155
  3
PUCSORTHOREF
350
152
  3
PUCSORTHOVIEW
350
153
  3
STYLESHEET
350
149
  3
TSTACKALIGN
350
146
  3
TSTACKSIZE
350
147
  3
UCSBASE
350
15D
  3
UCSORGBACK
350
163
  3
UCSORGBOTTOM
350
15F
  3
UCSORGFRONT
350
162
  3
UCSORGLEFT
350
160
  3
UCSORGRIGHT
350
161
  3
UCSORGTOP
350
15E
  3
UCSORTHOREF
350
15B
  3
UCSORTHOVIEW
350
15C
  3
VERSIONGUID
350
150
  0
MLINESTYLE
  5
18
102
{ACAD_REACTORS
330
17
102
}
330
17
100
AcDbMlineStyle
  2
Standard
 70
     0
  3

 62
   256
 51
90.0
 52
90.0
 71
     2
 49
0.5
 62
   256
  6
BYLAYER
 49
-0.5
 62
   256
  6
BYLAYER
  0
XRECORD
  5
14E
102
{ACAD_REACTORS
330
145
102
}
330
145
100
AcDbXrecord
 90
        0
  0
XRECORD
  5
164
102
{ACAD_REACTORS
330
145
102
}
330
145
100
AcDbXrecord
1000
DSTYLE
1002
{
1070
   171
 70
     2
1070
   143
 40
25.4
1070
   274
 70
     2
1070
    41
 40
1.25
1070
   141
 40
0.09
1070
   271
 70
     4
1070
    43
 40
0.38
1070
    44
 40
0.18
1070
   278
 70
    46
1070
    42
 40
0.0625
1070
   147
 40
0.09
1070
    77
 70
     3
1070
   272
 70
     4
1070
    73
 70
     1
1070
   172
 70
     0
1070
    74
 70
     1
1070
   283
 70
     1
1070
   340
340
11
1070
   140
 40
0.18
1070
   284
 70
     0
1070
    78
 70
     0
1002
}
  0
XRECORD
  5
14F
102
{ACAD_REACTORS
330
145
102
}
330
145
100
AcDbXrecord
  1
{674D6791-F6D6-47BF-A718-F7CCBC0371D1}
  0
XRECORD
  5
148
102
{ACAD_REACTORS
330
145
102
}
330
145
100
AcDbXrecord
  1

  0
XRECORD
  5
14D
102
{ACAD_REACTORS
330
145
102
}
330
145
100
AcDbXrecord
 90
        4
  0
XRECORD
  5
14A
102
{ACAD_REACTORS
330
145
102
}
330
145
100
AcDbXrecord
340
1A
  0
XRECORD
  5
14C
102
{ACAD_REACTORS
330
145
102
}
330
145
100
AcDbXrecord
 90
    10781
  0
XRECORD
  5
14B
102
{ACAD_REACTORS
330
145
102
}
330
145
100
AcDbXrecord
340
19
  0
XRECORD
  5
151
102
{ACAD_REACTORS
330
145
102
}
330
145
100
AcDbXrecord
 40
0.0
  0
XRECORD
  5
154
102
{ACAD_REACTORS
330
145
102
}
330
145
100
AcDbXrecord
340
0
  0
XRECORD
  5
15A
102
{ACAD_REACTORS
330
145
102
}
330
145
100
AcDbXrecord
 10
0.0
 20
0.0
 30
0.0
  0
XRECORD
  5
156
102
{ACAD_REACTORS
330
145
102
}
330
145
100
AcDbXrecord
 10
0.0
 20
0.0
 30
0.0
  0
XRECORD
  5
159
102
{ACAD_REACTORS
330
145
102
}
330
145
100
AcDbXrecord
 10
0.0
 20
0.0
 30
0.0
  0
XRECORD
  5
157
102
{ACAD_REACTORS
330
145
102
}
330
145
100
AcDbXrecord
 10
0.0
 20
0.0
 30
0.0
  0
XRECORD
  5
158
102
{ACAD_REACTORS
330
145
102
}
330
145
100
AcDbXrecord
 10
0.0
 20
0.0
 30
0.0
  0
XRECORD
  5
155
102
{ACAD_REACTORS
330
145
102
}
330
145
100
AcDbXrecord
 10
0.0
 20
0.0
 30
0.0
  0
XRECORD
  5
152
102
{ACAD_REACTORS
330
145
102
}
330
145
100
AcDbXrecord
340
0
  0
XRECORD
  5
153
102
{ACAD_REACTORS
330
145
102
}
330
145
100
AcDbXrecord
 70
     0
  0
XRECORD
  5
149
102
{ACAD_REACTORS
330
145
102
}
330
145
100
AcDbXrecord
  1

  0
XRECORD
  5
146
102
{ACAD_REACTORS
330
145
102
}
330
145
100
AcDbXrecord
 90
        1
  0
XRECORD
  5
147
102
{ACAD_REACTORS
330
145
102
}
330
145
100
AcDbXrecord
 90
       70
  0
XRECORD
  5
15D
102
{ACAD_REACTORS
330
145
102
}
330
145
100
AcDbXrecord
340
0
  0
XRECORD
  5
163
102
{ACAD_REACTORS
330
145
102
}
330
145
100
AcDbXrecord
 10
0.0
 20
0.0
 30
0.0
  0
XRECORD
  5
15F
102
{ACAD_REACTORS
330
145
102
}
330
145
100
AcDbXrecord
 10
0.0
 20
0.0
 30
0.0
  0
XRECORD
  5
162
102
{ACAD_REACTORS
330
145
102
}
330
145
100
AcDbXrecord
 10
0.0
 20
0.0
 30
0.0
  0
XRECORD
  5
160
102
{ACAD_REACTORS
330
145
102
}
330
145
100
AcDbXrecord
 10
0.0
 20
0.0
 30
0.0
  0
XRECORD
  5
161
102
{ACAD_REACTORS
330
145
102
}
330
145
100
AcDbXrecord
 10
0.0
 20
0.0
 30
0.0
  0
XRECORD
  5
15E
102
{ACAD_REACTORS
330
145
102
}
330
145
100
AcDbXrecord
 10
0.0
 20
0.0
 30
0.0
  0
XRECORD
  5
15B
102
{ACAD_REACTORS
330
145
102
}
330
145
100
AcDbXrecord
340
0
  0
XRECORD
  5
15C
102
{ACAD_REACTORS
330
145
102
}
330
145
100
AcDbXrecord
 70
     0
  0
XRECORD
  5
150
102
{ACAD_REACTORS
330
145
102
}
330
145
100
AcDbXrecord
  1
{FAEB1C32-E019-11D5-929B-00C0DF256EC4}
  0
ENDSEC
  0
EOF
